PrimaNota.ru - самый крупный в мире бесплатный архив песенных текстов, аккордов, табулатур и нот


The Myriad - You Waste Time Like A Grandfather Clock - бас-таба, видео

Регистрация Запомнить меня
Войти через:  Facebook Google Twitter Vk Yandex Mail.ru

The Myriad - You Waste Time Like A Grandfather Clock - бас-таба, видео

Печатать
Просмотров: 99
The Myriad-You Waste Time Like A Grandfather Clock Bass Tab (OFFICIAl)
   Intro
G|---------------------------------|
D|---------------------------------|
A|---------------------------------|
E|3-3-3-3-3-3-3-3-3-3-3-3-3-3-3-3-3|

   
G|------------------------------------|
D|1010xxxx1010xxxx1010xxxx1010xxxx1010|repeat
A|------------------------------------|
E|------------------------------------|

   Chorus, hold notes longer!
G|------------------------------------------------------------------------|
D|------------------------------------------------------------------------|
A|3333333333333333333333-6666666666666666666666-13-13-13-13-13-13-13-13-13|
E|------------------------------------------------------------------------|

G|---------------|
D|---------------|
A|---------------|intro part
E|3-3-3-3-3-3-3-3|

   
G|------------------------------------|
D|1010xxxx1010xxxx1010xxxx1010xxxx1010|repeat
A|------------------------------------|
E|------------------------------------|

   Chorus
G|-------------------------------------------------------------------|
D|-------------------------------------------------------------------|
A|3333333333333333333333-66666666666666666-13-13-13-13-13-13-13-13-13|x2
E|-------------------------------------------------------------------|

   
G|--------------------------------------------------------------------|
D|--------------------------------------------------------------------|
A|-------------------------66666666666-15-15-15-15-15-15-15|x2--------|
E|4-4-4-4-4-1-1-1-1-1-1-1-------------------------------------44444444|

G|-------------------------------------------12-10-8------------|
D|1010xxxx1010xxxx1010xxxx1010xxxx1010xxxx10----------1010xxxx10|
A|--------------------------------------------------------------|
E|--------------------------------------------------------------|

   Chorus(ending)
G|---------------------------------------------------------------------|
D|---------------------------------------------------------------------|
A|3333333333333333333333-6666666666666666666666-13-13-13-13-13-13-13-13|x2
E|---------------------------------------------------------------------|

G|---------------------------------------------------------------------|
D|----------------5-5-3-3----5-----------------------------------------|
A|333333333333333---------6-----666666666666-13-13-13-13-13-13-13-13-13|
E|---------------------------------------------------------------------|

G|---------------------------------------------------------------------|
D|---------------------------------------------------------------------|
A|3333333333333333333333-6666666666666666666666-13-13-13-13-13-13-13-13|
E|---------------------------------------------------------------------|

John Durrant, jondurrant101@gmail.com
Добавлено: 24.11.2013
Другие материалы по этой песне:
  • Аккорды и текст

Страница создана 24.11.2013
http://primanota.ru/the-myriad/you-waste-time-like-a-grandfather-clock-chords.htm
Привет, Гость.
Предлагаем пройти революционный курс по гитаре.
Подарок от PrimaNota.Ru, забирай!