PrimaNota.ru - самый крупный в мире бесплатный архив песенных текстов, аккордов, табулатур и нот


The Myriad - Tethered - таба, видео

Регистрация Запомнить меня
Войти через:  Facebook Google Twitter Vk Yandex Mail.ru

The Myriad - Tethered - таба, видео

Печатать
Просмотров: 81
The Myriad-Tethered Tab

   Intro(lead)
e|--------------------------------------|
B|--------------------------------------|
G|xx5-5-5-5xx5-5-5-5----5-5-5-5xx5-5-5-5|
D|--------------------------------------|
A|------------------0------------------0|
E|--------------------------------------|

   Intro(rhythm)
e|-----------------------------------------------|
B|------------------------------------------------|
G|------------------------------------------------|
D|------------------------------------------------|
A|------------------------------------------------|
E|555555555-7777777-88888888-5555555555-4444444444|

   Chorus
e|--------------------------------------------------------------------|
B|--------------------------------------------------------------------|
G|------------------------------------333333333333333-----------------|
D|777777777777777777xx77xx77xx77xx77|-----------------xx77xx77xx77xx77|
A|--------------------------------------------------------------------|
E|--------------------------------------------------------------------|

 (lead)
e|--------------------------------------|
B|--------------------------------------|
G|xx5-5-5-5xx5-5-5-5----5-5-5-5xx5-5-5-5|
D|--------------------------------------|
A|------------------0------------------0|
E|--------------------------------------|

   (rhythm)
e|------------------------------------------|
B|------------------------------------------|
G|------------------------------------------|
D|------------------------------------------|
A|------------------------------------------|
E|555555555-7777777-88888888-5555555-4444444|

   Chorus
e|---------------------------------------------------|
B|---------------------------------------------------|
G|------------------------------------333333333333333|
D|777777777777777777xx77xx77xx77xx77|----------------|
A|---------------------------------------------------|
E|---------------------------------------------------|

 (lead)
e|--------------------------------------|
B|--------------------------------------|
G|xx5-5-5-5xx5-5-5-5----5-5-5-5xx5-5-5-5|
D|--------------------------------------|
A|------------------0------------------0|
E|--------------------------------------|

e|--------------|
B|--------------|
G|--------------|
D|--------------|
A|0--0--0-00-0-0|
E|--------------|

  Chorus
e|---------------------------------------------------|
B|---------------------------------------------------|
G|------------------------------------333333333333333|
D|777777777777777777xx77xx77xx77xx77|----------------|
A|---------------------------------------------------|
E|---------------------------------------------------|
   Ending
e|--------------------|
B|--------------------|
G|--------------------|
D|77777777777777777777|
A|--------------------|
E|--------------------|
Добавлено: 22.09.2013
Другие материалы по этой песне:
  • Аккорды и текст

Страница создана 27.08.2013
http://primanota.ru/the-myriad/tethered-chords.htm
Привет, Гость.
Предлагаем пройти революционный курс по гитаре.
Подарок от PrimaNota.Ru, забирай!