PrimaNota.ru - самый крупный в мире бесплатный архив песенных текстов, аккордов, табулатур и нот


The Myriad - Nothing Is Safe - таба, видео

Регистрация Запомнить меня
Войти через:  Facebook Google Twitter Vk Yandex Mail.ru

The Myriad - Nothing Is Safe - таба, видео

Печатать
Просмотров: 80
     The Myriad "Nothing Is Safe"

   e[10------------12------------------------|
   B|---10-12-10------10-13-10---------------|
   G[----------------------------------------]
   D[----------------------------------------]
   A[----------------------------------------]
   E[Guitar 1: Intro-------------------------]


   e[5--5--5--5------5--5-5-5-5---5--5-------|
   B[5--5--5--5------5--5-5-5-5---5--5-------|
   G[----------------------------------------|
   D[----------------------------------------]
   A[----------------------------------------]
   E[----------------------------------------]

   e[------------------------------------------]
   B|14-14-14---14-14-14-14-14-14-141414141414-|use an octave pedal,
   G[------------------------------------------]
   Drythm gtr----------------------------------]never warm down here, warm 
   A[------------------------------------------]
   E[------------------------------------------]





   e|---5-------5-------5----|
   B|------------------------|
   G[9-----9--------9-------9]
   D[------------------------]lead gtr
   A[------------------------]
   E[------------------------]


   e|------------------------------------------|
   B|------------------------------------------|
   G[------------------------------------------]
   D[------------------------------------------]
   A[55555555555-77777777777-5555555-777777777-]
   E[------------------------------------------]rhythm guitar


   e[10------------12------------------------|
   B|---10-12-10------10-13-10---------------|
   G[----------------------------------------]
   D[----------------------------------------]
   A[----------------------------------------]
   E[Guitar 1: ------------------------------]
 
   
   

   e[------------------------------------------]
   B|14-14-14---14-14-14-14-14-14-141414141414-|use an octave pedal,
   G[------------------------------------------]
   Drythm gtr----------------------------------]
   A[------------------------------------------]
   E[------------------------------------------]
Добавлено: 10.08.2013
Другие материалы по этой песне:
  • Аккорды и текст

Страница создана 10.08.2013
http://primanota.ru/the-myriad/nothing-is-safe-chords.htm
Привет, Гость.
Предлагаем пройти революционный курс по гитаре.
Подарок от PrimaNota.Ru, забирай!