PrimaNota.ru - самый крупный в мире бесплатный архив песенных текстов, аккордов, табулатур и нот


The Music - The Walls Get Smaller - аккорды и текст, таба, видео

Регистрация Запомнить меня
Войти через:  Facebook Google Twitter Vk Yandex Mail.ru

The Music - The Walls Get Smaller - аккорды и текст, таба, видео

Печатать
Просмотров: 130
Уроки эстрадного вокала в Санкт-Петербурге
The Walls Get Smaller
The Music
Song:The Walls Get Smaller
Band:The Music

(x12)
|-------------------------------------------------------------|
|-------------------------------------------------------------|
|--10--9--7--5->--2--2>---------------------------------------|
|-0--0--0--0-------0------------------------------------------|
|-------------------------------------------------------------|
|-------------------------------------------------------------|

(x2)
|-------------------------------------------------------------|
|-------------------------------------------------------------|
|--3-2-3-2-3-2-3-2-3-2--2--2--2-2--2--2-----------------------|
|-0---0---0---0---0---0--0--0----0--0-------------------------|
|----------------------3--3--3-3--3--3------------------------|
|-------------------------------------------------------------|

A second guitar comes in here, played over the first guitar (same part as above)

(x3)
|-------------------------------------------------------------|
|-------------------------------------------------------------|
|--15-14-12-10-9----------------------------------------------|
|-0--0--0--0--0-----------------------------------------------|
|-------------------------------------------------------------|
|-------------------------------------------------------------|

|-------------------------------------------------------------|
|-----------------------6-5-6-5-6-5-6-5-6-5-------------------|
|--7-5-7-5-7-5-7-5-7-5-5---5---5---5---5----------------------|
|-0---0---0---0---0-------------------------------------------|
|-------------------------------------------------------------|
|-------------------------------------------------------------|

This is where the drum bit kicks in, play each of these notes about 12 times.

|-------------------------------------------------------------|
|-------------------------------------------------------------|
|-------------------------------------------------------------|
|-7-----9-----10----12-----14-----17-----19-----21-----22-----|
|-5-etc-7-etc-8-etc-10-etc-12-etc-15-etc-17-etc-19-etc-20-----|
|-------------------------------------------------------------|

Then the main tune starts again. Just whack a bit of distortion on and repeat the same parts as above. 
There are chords played over the last bit I think, but this is mainly just the lead guitar tab
muna@blueyonder.co.uk
Добавлено: 25.09.2013
Другие материалы по этой песне:

Страница создана 08.04.2012
http://primanota.ru/the-music/the-walls-get-smaller-chords.htm
Привет, Гость.
Предлагаем пройти революционный курс по гитаре.
Подарок от PrimaNota.Ru, забирай!