PrimaNota.ru - самый крупный в мире бесплатный архив песенных текстов, аккордов, табулатур и нот


The Music - Take The Long Road - таба, видео

Регистрация Запомнить меня
Войти через:  Facebook Google Twitter Vk Yandex Mail.ru

The Music - Take The Long Road - таба, видео

Печатать
Просмотров: 57
Artist : The Music
Title : Take The Long Road
Album : The Music
Tabbed by : Paul Nolan (i_luv_robb_flynn@hotmail.com)

Heres just the main riff to the song and the bridge.

Standard Tuning

Main Riff: (distorted with some delay)

e|----------------------|
B|----------------------|
G|----------------------|
D|----7-5h7-7-7p5-------|
A|--0-------------7-6---|
E|----------------------|

Bridge: (distorted with delay)

e|-------------------------------------------------------------------
B|-------------------------------------------------------------------
G|-------------------------------------------------------------------
D|----7--7--7--7--7--7/10---10--10--10--10--10--10-10\9---9--9--9--9-
A|--0--0--0--0--0--0------0---0---0---0---0---0---------0--0--0--0---
E|-------------------------------------------------------------------...

cont...

e|-----------------------------------------------|
B|-----------------------------------------------|
G|-----------------------------------------------|
D|----9--9--9/12---12--12--15--15--14------------|
A|--0--0--0------0---0---0---0---0---------------|
E|-----------------------------------------------|





     
Добавлено: 09.07.2013
Другие материалы по этой песне:
  • Аккорды и текст

Страница создана 09.07.2013
http://primanota.ru/the-music/take-the-long-road-chords.htm
Привет, Гость.
Предлагаем пройти революционный курс по гитаре.
Подарок от PrimaNota.Ru, забирай!