PrimaNota.ru - самый крупный в мире бесплатный архив песенных текстов, аккордов, табулатур и нот


The Muggs - Down Below - таба, видео

Регистрация Запомнить меня
Войти через:  Facebook Google Twitter Vk Yandex Mail.ru

The Muggs - Down Below - таба, видео

Печатать
Просмотров: 98
Уроки эстрадного вокала в Санкт-Петербурге
-------------------------------------------------------------------------------
                             Down Below - The Muggs
-------------------------------------------------------------------------------

Tabbed by: aminard
Tuning: Standard
Tone: Warm, healthy gain
Effects: Distortion
Notes: Mainly minor pentatonic riffs in A flat, and a I-IV-V progression.

************************************
| /   slide up
| \   slide down
| h   hammer-on
| p   pull-off
| v~  vibrato
| +   harmonic
| x   Mute note
| ^   quarter-step bend
| b   bend
| br  bend release
************************************


[Intro / Bridge]
e|----------------------------------------|----------------------------------|
B|----4--6^---6p4-------------------------|----------------------------------|
G|----4--6^---6p4---4v~~------------------|----------------------------------|
D|---(4)(6)-------6-----6p4-6p4------4v---|---------4-6----------------------|
A|--------------------------------6-------|---4-6-------4----6---------------|
E|--4-------------------------------------|---------------------2------------|

e|----4---------------------------4-------|----------------------------------|
B|-------7b9--9br7--4---------------------|----------------------------------|
G|----------------------6--6b8b6-----4^---|----------------------------------|
D|----------------------------------------|--------4-6-----------------------|
A|----------------------------------------|---4-6------4-----6---------------|
E|--4-------------------------------------|---------------------2------------|

e|----4--7b9--4--------------------4------|----------------------------------|
B|--------------4h7-7b9v~~----------------|----------------------------------|
G|-----------------------6-4-6b8b6----4^--|----------------------------------|
D|----------------------------------------|--------4-6-----------------------|
A|----------------------------------------|----4-6-----4-----6---------------|
E|--4-------------------------------------|---------------------2------------|

e|----------------------------------------|----------------------------------|
B|----4---66666666-6^6--4-6-4-------------|----------------------------------|
G|----4---66666666-6^6--4-6-4-------------|----------------------------------|
D|---(4)--66666666-6^6--4-6-4-------------|--------4-6-----------------------|
A|----------------------------------------|---4-6-------4----6---------------|
E|--4-------------------------------------|---------------------2------------|
   (bend more gradually with each strum)

e||--------------------------------------------------------------------------||
B||--------------------------------------------------------------------------||
G||*-------x-4-------x-4-------------4/6--4--6p4----------------------------*||
D||---6-6--x-4--4-4--x-4---4-4--------------------6p4------------------------||
A||*--6-6--x-2--4-4--x-2---4-4-------------------------6--------------------*||
E||---4-4-------2-2--------2-2----------------------------4--6p4-------------||x2


[Verse]
Notes: I-IV-V blues progression in A flat

e||----------------------------------------|----------------------------------||
B||----------------------------------------|----------------------------------||
G||*---------------------------------------|---------------------------------*||
D||---6-6--xx-x-6-6--xx--x-6-6-------------|--------4-6-----------------------||
A||*--6-6--xx-x-6-6--xx--x-6-6-------------|---4-6-------4----6--------------*||x4 first time played,
E||---4-4--xx-x-4-4--xx--x-4-4-------------|---------------------2------------||x2 on subsequent times
                                                                                

e|----------------------------------------------------------------------------|
B|----------------------------------------------------------------------------|
G|--6-6--xx-x-6-6--xx--x-6-6--xx-x-6-6----------------------------------------|
D|--6-6--xx-x-6-6--xx--x-6-6--xx-x-6-6----------------------------------------|
A|--4-4--xx-x-4-4--xx--x-4-4--xx-x-4-4----------------------------------------|
E|-------xx-x------xx--x------xx-x--------------------------------------------|

e|------------------------------------------|----------------------------------||
B|------------------------------------------|----------------------------------||
G|------------------------------------------|----------------------------------||
D|---6-6--xx--x-6-6--xx--x--6-6-------------|--------4-6-----------------------||
A|---6-6--xx--x-6-6--xx--x--6-6-------------|---4-6-------4----6---------------||
E|---4-4--xx--x-4-4--xx--x--4-4-------------|---------------------2------------||
 (Guitar #2 plays TBD lead lick on top here)

e|----------------------------------------------------------------------------|
B|-(8)(8)(8)(8)(8)(8)(8)(8)(8)(8)(8)-(6)(6)(6)(6)(6)(6)(6)(6)(6)(6)(6)(6)-----|
G|--8--8--8--8--8--8--8--8--8--8--8---6--6--6--6--6--6--6--6--6--6--6--6------|
D|--8--8--8--8--8--8--8--8--8--8--8---6--6--6--6--6--6--6--6--6--6--6--6------|
A|--6--6--6--6--6--6--6--6--6--6--6---4--4--4--4--4--4--4--4--4--4--4--4------|
E|----------------------------------------------------------------------------|

e||-------------------------------------------------------------------------||
B||-------------------------------------------------------------------------||
G||*-------x-4-------x-4---------x--4/6--4--6p4----------------------------*||
D||---6-6--x-4--4-4--x-4---4-4---x---------------6p4------------------------||
A||*--6-6--x-2--4-4--x-2---4-4---x--------------------6--------------------*||
E||---4-4-------2-2--------2-2---x-----------------------4--6p4-------------||x2


[Repeat Verse]

[Repeat Intro / Bridge]


[Break Down - Rhythm Guitar]  Note: There's only one guitarist, so loop may be required here.
e|---------------------------------------------------|------------------------|
B|---------------------------------------------------|------------------------|
G|*-------------------------------------------------*|------------------------|
D|---(6)(6)-----6^------6-----(4)-(4)(4)-------------|---------4h6------------|
A|*---6--6----------4h6--------4---4--4---4^--------*|----4h6-----------------|
E|----4--4--7p4-----------7^---2---2--2-------7------|--------------7^--------|x6-8

[Break Down - Lead Guitar - Solo]
e|---------------------------------------------------------------------------|
B|------------------****************-----------------------------------------|
G|------------------**TO-BE-TABBED**-----------------------------------------|
D|------------------****************-----------------------------------------|
A|---------------------------------------------------------------------------|
E|---------------------------------------------------------------------------|


[Repeat Verse (as Outro)]
Добавлено: 27.12.2015
Вам также может быть интересно:
Другие материалы по этой песне:
  • Аккорды и текст

Страница создана 27.12.2015
http://primanota.ru/the-muggs/down-below-chords.htm
Привет, Гость.
Предлагаем пройти революционный курс по гитаре.
Подарок от PrimaNota.Ru, забирай!