PrimaNota.ru - самый крупный в мире бесплатный архив песенных текстов, аккордов, табулатур и нот


The Mouse And The Mask - Crosshairs - таба, видео

Регистрация Запомнить меня
Войти через:  Facebook Google Twitter Vk Yandex Mail.ru

The Mouse And The Mask - Crosshairs - таба, видео

Печатать
Просмотров: 97
Уроки эстрадного вокала в Санкт-Петербурге
----------------------------------------------------------------------------
                            Crosshairs - The Mouse and the Mask
----------------------------------------------------------------------------
Offical Band Website: http://www.dangerdoom.com/


Tabbed by: Jeremy Canton
Email: endeffected02@hotmail.com

Tuning: standard


This song is so chill!

This TAB cant be found ANYWHERE on the internet - until now ofcourse.
I think its about 90% accurate.


Please email me comments and feedback - lets get it tabbed out completely.


You're gonna need to listen to it and figure out the timing - cuz im lazy.



Order:

-----
Part A x 2
Part B x 4
-----
Part A x 2
Part B x 4
Part C
Part D



Part A - ("The fat is in the fire, a frier made of chicken wire...")

E|------------------------------15h12--------------------------------------|
B|-------------------15-15--17--------15h13--------------------------------|
G|-14--14-14--17-17-------------------------16----14---14-14--17-17-16-----|
D|---------------------------------------------17----------------------17--|
A|-------------------------------------------------------------------------|
E|-------------------------------------------------------------------------|

E|-------------------------------------------------------------------------|
B|-------------------------------------------------------------------------|
G|-------------------------------------------------------------------------|
D|-------16----------------------------------------------------------------|
A|14--16-------------------------------------------------------------------|
E|-------------------------------------------------------------------------|

Part B - ("Doom, not to be confused with nobody, especially...")

E|-----------------------------------------------|
B|-----------------------------------------------|
G|-14h17-14-17-14--------------------------------|
D|-----------------------------------------------|
A|-----------------------------------------------|
E|-----------------------------------------------|

E|-17~--------17~--------------------------------|
B|-----------------------------------------------|
G|-----------------------------------------------|
D|-----------------------------------------------|
A|-----------------------------------------------|
E|-----------------------------------------------|


Part C - ("Caught him leaving holding the bag... ")

E|-------------------------------------15h12-------------------------------|
B|------------------------15-15--17----------15h13-------------------------|
G|-----------------17-17----------------------------16----14---14-14--17-17|
D|-------------14--------------------------------------17------------------|
A|12-12--14h15-------------------------------------------------------------|
E|-------------------------------------------------------------------------|


E|-------------------------------------------------------------------------|
B|-------------------------------------------------------------------------|
G|--16-------------16------------------------------------------------------|
D|-----17--14---16---------------------------------------------------------|
A|-------------------------------------------------------------------------|
E|-------------------------------------------------------------------------|


Part D - ("And he's on the next flight, moon bound...")




E|-----------------------------------15h12---------------------------------|
B|-------------------15-15-15--17----------15h13---------------------15----|
G|-14-14h17-17-17-17------------------------------16----14--14-14-17----17-|
D|---------------------------------------------------17--------------------|
A|-------------------------------------------------------------------------|
E|-------------------------------------------------------------------------|

E|-----------------------------|
B|-----------------------------|
G|16-14-14----------------16---|
D|---------15-14-14-16-16------|
A|-----------------------------|
E|-----------------------------|






| /  slide up
| \  slide down
| h  hammer-on
| p  pull-off
| ~  vibrato
| +  harmonic
| x  Mute note


E|-------------------------------------------------------------------------|
B|-------------------------------------------------------------------------|
G|-------------------------------------------------------------------------|
D|-------------------------------------------------------------------------|
A|-------------------------------------------------------------------------|
E|-------------------------------------------------------------------------|

Добавлено: 19.06.2012
Другие материалы по этой песне:
  • Аккорды и текст

Страница создана 19.06.2012
http://primanota.ru/the-mouse-and-the-mask/crosshairs-chords.htm
Привет, Гость.
Предлагаем пройти революционный курс по гитаре.
Подарок от PrimaNota.Ru, забирай!