PrimaNota.ru - самый крупный в мире бесплатный архив песенных текстов, аккордов, табулатур и нот


The Motors - Forget About You - бас-таба, видео

Регистрация Запомнить меня
Войти через:  Facebook Google Twitter Vk Yandex Mail.ru

The Motors - Forget About You - бас-таба, видео

Печатать
Просмотров: 95
Уроки эстрадного вокала в Санкт-Петербурге
Авторы: Andy McMaster

Forget About You
The Motors, a British Pub Rock/Punk Band, released this their
Second single in 1978 where it reached number 13 in UK charts
Original bassist Andy McMaster, Tab by bass50611.
Straight forward song, has a bit of a Motown feel, good dance
song for the ladies. Any comments bass254@btinternet.com

Into:
   (PLAY THIS x4)
G|-----------------|  |-----------------------------------|
D|-----------------|  |-2-2-------------------------------|
A|-2-2-2-2-2-2-2-2-|  |------4-2--------------------------|
E|-----------------|  |-----------0-4-4-4-0-4---5-5-5-0-5-|

G|-------------------------------------------------------|
D|-----------2-2-----------------------------------------|
A|------2-2------4-2---------------------------------2-2-|
E|-2-22---------------0-4-4-4-0-4---5-5-5-0-5---2-22-----|

Verse:                           (PLAY THIS x2)
G|---------------------------------------------|
D|-2-2-----------------------------------------|
A|-----4-2--------------------------2-22---2-2-|
E|----------0-4-4-4-0-4---5-5-5-5--------------|

Bridge:
G|------------------------------------|
D|------------------------------------|
A|-4-4-4-4----------0-0-0-0---2-2-2-2-|
E|---------4-4-4-4--------------------|

G|-----------------------------------|
D|-----------------------------------|
A|-4-4-4-4-------------------2-2-2-2-|
E|---------4-4-4-4---2-2-2-2---------|

Chorus 1:                        (PLAY THIS x2)
G|---------------------------------------------|
D|-2-2-----------------------------------------|
A|-----4-2---------------------------------2-2-|
E|----------0-4-4-4-0-4---5-5-5-0-5---2-22-----|

Interlude:
G|---------------------------------------|
D|-2-2-----------------------------------|
A|-----4-2---------------2-2-2-2-2-2-2-2-|
E|----------0-4-4-4-0-4------------------|

REPEAT VERSE & BRIDGE:

Chorus 2:                                 (PLAY THIS x2)
G|---------------------------------------------|
D|-2-2-----------------------------------------|
A|-----4-2---------------------------------2-2-|
E|----------0-4-4-4-0-4---5-5-5-0-5---2-22-----|

G|---------------------------------------------------------|
D|-2-2-----------------------------------------------------|
A|-----4-2---------------------------------2-2-2-2-2-2-2-2-|
E|---------0-4-4-4-0-4---5-5-5-5---2-2-2-2-----------------|

REPEAT CHORUS 1 TO FADE/END
Добавлено: 21.10.2013
Вам также может быть интересно:
Другие материалы по этой песне:
  • Аккорды и текст

Страница создана 21.10.2013
http://primanota.ru/the-motors/forget-about-you-chords.htm
Привет, Гость.
Предлагаем пройти революционный курс по гитаре.
Подарок от PrimaNota.Ru, забирай!