PrimaNota.ru - самый крупный в мире бесплатный архив песенных текстов, аккордов, табулатур и нот


The Mother Hips - One Way Out - аккорды и текст, видео

Регистрация Запомнить меня
Войти через:  Facebook Google Twitter Vk Yandex Mail.ru

The Mother Hips - One Way Out - аккорды и текст, видео

Печатать
Просмотров: 84
One Way Out
The Mother Hips
"ONE WAY OUT"
by The Mother Hips
From the album PACIFIC DUST


(Intro chords:)
F  C  Gm

F                Em
Broke down for the first time

Am               G/Am
It's a long way

       Bb        Am7
To the next town


       F                  Em
It's a hot day and I wish I was down

       Am         G/Am
In the cool breeze

Bb               Bm7b5 (diagram of chord below)
of a beach town


              F   C  Gm
There's only one way out

        F         C         Gm
And I'm trying to figure it out

              F   C   Gm
There's only one way out

                 F
We'll see about that


(verse chords over solo)


Solo 1

e-----------------------------------------------------------|
b-----------------------------------------------------------|
g-----------------------------------------------------------|
d-----------3--5b(7)---5--3--2------2--3--2--0--------------|
a------3/5--------------------------------------2~~~~~~~----|
e-----------------------------------------------------------|


e-----------------------------------------------------------|
b---1-0-----------------------------------------------------|
g-------2-0-2-0-----0-2-0----------------3/5--7--5/3--3/5\3-|
d-------------------------3-2-3-2p0-------------------------|
a-----------------------------------3-1--1/3--5--3/1--1/3\1-|
e-----------------------------------------------------------|

Solo 2 (for one guitar, with slide)

e---------------13----------------17----\20--17--------------------------------10/12-----|
b----13--11--10--------13--11--10-----------------17\--12\------------------12-------12--|
g---------------------------------------------------------12-------------12--------------|
d------------------------------------------------------------------12/14-----------------|
a----------------------------------------------------------------------------------------|
e----------------------------------------------------------------------------------------|

e------------------------17----20--17/--18~~~~------=---------------13/15----13-15-16-17--|
b-12/13---------------17--------------------15/-13-------15/12----------------------------|
g-------14---12/14/17-----------------------------15-----------13-------------------------|
d-----------------------------------------------------------------------------------------|
a-----------------------------------------------------------------------------------------|
e-----------------------------------------------------------------------------------------|



F     C    Gm     Dm     A7
Don't you want to go

                  F      C         Bb
Don't you want to go the way the wind blows

F        C     Gm    Dm    A7
Wouldn't you like to go

                      F
Wouldn't you like to go
     C           Bb
the way the wind blows



Bm7b5 CHORD:

e------|
b--3---|
g--2---|
d--3---|
a--2---|
e------|
Добавлено: 30.11.2013
Другие материалы по этой песне:
  • Аккорды и текст

Страница создана 04.08.2013
http://primanota.ru/the-mother-hips/one-way-out-chords.htm
Привет, Гость.
Предлагаем пройти революционный курс по гитаре.
Подарок от PrimaNota.Ru, забирай!