PrimaNota.ru - самый крупный в мире бесплатный архив песенных текстов, аккордов, табулатур и нот


The Mother Hips - In This Bliss - аккорды и текст, видео

Регистрация Запомнить меня
Войти через:  Facebook Google Twitter Vk Yandex Mail.ru

The Mother Hips - In This Bliss - аккорды и текст, видео

Печатать
Просмотров: 57
In This Bliss
The Mother Hips
D                 F# 
Darling don't you cry 
    Bm               E         G       G7 
The world is waiting over your shoulder 
D              F# 
Maybe it's not mine  
   Bm             E              G     G7 
to understand the meaning of your wonder 
D    D7 
Ah ah ah ah ah 
 
E            A      G        F#m     C7M   
All games and fears will not conquer this 
 
---------------------- 
---------------------- 
------0-2-0---0------- 
--2-4-------4---4---0- 
---------------------- 
---------------------- 
 
E          A        G    A 
Stay for a while in this bliss 
 G    A     G        A    A7 
For a while in this bliss 
 
D                 F# 
All the times you cry 
        Bm            E               G     G7 
They're only soft expressions of your needing 
 
     D            F# 
What do I know of needs 
 Bm             E                 G  
teach me how to know them from my wanting 
 
D   D7 
ah ah ah ah ah 
 
E       A    G     F#m      C7M   
In your beginner's mind you see 
E         A       G      A      G     A   G      A   A7 
stay for a while in this free for a while in this free 
  
GUITAR SOLO: 
E---------------------------------------------------------- 
B--7-8-7-8-7----7--10(12)-10-7----------------------------- 
G------------------------------9--7-9-7-9-6(7)-6-4-----/10- 
D---------------------------------------------------------- 
A---------------------------------------------------------- 
E---------------------------------------------------------- 
 
E------------------------9-10-9-7-----7------14(15)-------- 
B--7-8-7-8-7-----7-10(12)---------9-------12--------------- 
G--------------------------------------12------------------ 
D---------------------------------------------------------- 
A---------------------------------------------------------- 
E---------------------------------------------------------- 
 
E------------------------------------------------12--------- 
B----12-14-14(15)--14(15)14-13----13(14)13-12--------------- 
G-12------------------------------------------13------------ 
D----------------------------------------------------------- 
A----------------------------------------------------------- 
E----------------------------------------------------------- 
 
E            A      G        F#m     CMaj7 
All games and fears will not conquer this 
 
E---------------------- 
B---------------------- 
G------0-2-0---0------- 
D--2-4-------4---4--2-- 
A---------------------- 
E---------------------- 
 
E          A        G    A 
Stay for a while in this bliss 
 G    A     G        A    A7 
For a while in this bliss 
 
E-----------------------0---7-------3---- 
B-----------------------0---7---7---3---- 
G------0-2-0---0--------1---8---7---4---- 
D--2-4-------4---4---2--2---9---7---5---- 
A-----------------------2---9---5---5---- 
E-----------------------0---7-------3---- 
 
E---------------------------------------- 
B---------------------------------------- 
G------0-2-0---0-------------4----------- 
D--2-4-------4---4--2--4-6-7--7-6-7-6-4-- 
A---------------------------------------- 
E---------------------------------------- 
 
E                G# 
Little curls and chirps 
C#m              F#          A 
All the grandest ideas you do give me 
E                 G# 
Tiny hands and feet  
 
C#m               F#           A 
Could anything in life be more lovely 
F#m7  G#m7  A      E 
ah    ah    ah     ah
Добавлено: 12.06.2016
Другие материалы по этой песне:
  • Аккорды и текст

Страница создана 12.06.2016
http://primanota.ru/the-mother-hips/in-this-bliss-chords.htm
Привет, Гость.
Предлагаем пройти революционный курс по гитаре.
Подарок от PrimaNota.Ru, забирай!