PrimaNota.ru - самый крупный в мире бесплатный архив песенных текстов, аккордов, табулатур и нот


The Morning Benders - Lovefool - таба, видео

Регистрация Запомнить меня
Войти через:  Facebook Google Twitter Vk Yandex Mail.ru

The Morning Benders - Lovefool - таба, видео

Печатать
Просмотров: 423
http://www.youtube.com/watch?v=ZlmZ8i0O9oY




Artist : The Morning Benders
Song   : "Lovefool" (The Cardigans Cover)

Tuning : Eb Ab C# F# Bb eb (Half-Step Down)
Capo   : Nope

Tabbed By : Chester Abellera (^-^)




Chords/Notes :
       Em    Am    D     G    G/F# Gmaj7
eb |---0-----0-----------------------2~--|
Bb |---0-----1-----3-----3-----0-----0~--|
F# |---0-----2-----2-----0-----0-----0~--|
C# |---2-----2-----0-----0-----0-----0~--|
Ab |---2-----0-----------x-----x-----x---|
Eb |---0-----------------3-----2-----3~--|


       Ab   Am7    E7    B
eb |---------0-----0---------|
Bb |---------1-----0-----4---|
F# |---------0-----1-----4---|
C# |---------2-----0-----4---|
Ab |---------0-----2-----2---|
Eb |---4-----------0---------|



       E    C#m7  F#m    B                     B7
eb |---0-----4-----2---------|          eb |---2---|
Bb |---0-----5-----2-----4---|          Bb |---0---|
F# |---1-----4-----2-----4---|          F# |---2---|
C# |---2-----6-----4-----4---|          C# |---1---|
Ab |---2-----4-----4-----2---|          Ab |---2---|
Eb |---0-----------2---------|          Eb |-------|



Intro/Verse : Em     Am     D      G -> G/F#
              Em     Am     D      G -> Gmaj7 (Let the Gmaj7 ring out.)

Pre-Chorus  : Em     Am     D      G -> Ab
              Am7    E7     B      B

Chorus      : E      C#m7   F#m    B (Repeats 4x)
              (On the 5th time, the chords are played
               twice as long.)
              E      C#m7   F#m    B (Repeats 2x)

Post-Chorus : E      Am     B7 (Let the B7 Chord ring out for a while,
                                then back to Intro/Verse Progression.)


Lyrics :
Dear, I fear we're facing a problem
you love me no longer, I know
and maybe there is nothing that I can do
to make you do

Mama tells me I shouldn't bother
that I ought to stick to another girl
a girl that surely deserves me
but I think you do!

So I cry, I pray and I beg

Love me love me
say that you love me
fool me fool me
go on and fool me
love me love me
pretend that you love me
leave me leave me
just say that you need me
Love me love me
say that you love me
leave me leave me
just say that you need me
I can't care 'bout anything but you...

Lately I have desperately pondered,
spent my nights awake and I wonder
what I could have done in another way
to make you stay
Reason will not lead to solution
I will end up lost in confusion
I don't care if you really care
as long as you don't go
Добавлено: 09.07.2013
Вам также может быть интересно:
Другие материалы по этой песне:
  • Аккорды и текст

Страница создана 09.07.2013
http://primanota.ru/the-morning-benders/lovefool-chords.htm
Привет, Гость.
Предлагаем пройти революционный курс по гитаре.
Подарок от PrimaNota.Ru, забирай!