PrimaNota.ru - самый крупный в мире бесплатный архив песенных текстов, аккордов, табулатур и нот


The Morning Benders - Dreams - таба, видео

Регистрация Запомнить меня
Войти через:  Facebook Google Twitter Vk Yandex Mail.ru

The Morning Benders - Dreams - таба, видео

Печатать
Просмотров: 95
-------------------------------------------------------------------------------
                             DREAMS – The Morning Bendders
-------------------------------------------------------------------------------
Tabbed by:gwong369

Tuning: Standard

e|---X-0-------X-2-----------------------------------------------------------|
B|---X-0-------X-2-----------------------------------------------------------|
G|---X-1-------X-3-----------------------------------------------------------|
D|---X-2-------X-4-----------------------------------------------------------|
A|---X-2-------X-4-----------------------------------------------------------|
E|0--X-0----2--X-2-----------------------------------------------------------|

Repeat this throughout the whole song, so simple yet such a good cover. Feel free to add 
some flair to this tab, it's just a simple version of the their cover. Enjoy Everyone.

Lyrics:
Now there you go again
You say you want your freedom
Well who am I to keep you down
It's only right that you should play it the way that you feel it
But listen carefully to the sound of your loneliness
Like a heartbeat, drives you mad
In the stillness of remembering
What you had, and what you lost
what you had, and what you lost

Chorus:
Thunder only happens when it's raining
Players only love you when they're playing
They say, women, they will come and they will go
When the rain washes you clean you'll know
You'll know

Now here I go again, I see the crystal vision
I keep my visions to myself
It's only me who wants to wrap around your dreams and
Have you any dreams you'd like to sell,
Dreams of Loneliness, like a heartbeat drives you mad
In the stillness of remembering
What you had, And what you lost
What you had, oh what you lost

Thunder only happens when it's raining
Players only love you when they're playing
They say, women, they will come and they will go
When the rain washes you clean you'll know

Oh thunder only happens when it's raining
Players only love you when they're playing
They say, women, they will come and they will go
When the rain washes you clean you'll know
You'll know
You will know
Oh oh oh you'll know
Добавлено: 28.04.2012
Другие материалы по этой песне:
  • Аккорды и текст

Страница создана 28.04.2012
http://primanota.ru/the-morning-benders/dreams-chords.htm
Привет, Гость.
Предлагаем пройти революционный курс по гитаре.
Подарок от PrimaNota.Ru, забирай!