PrimaNota.ru - самый крупный в мире бесплатный архив песенных текстов, аккордов, табулатур и нот


The Morning Benders - Cold War - бас-таба, видео

Регистрация Запомнить меня
Войти через:  Facebook Google Twitter Vk Yandex Mail.ru

The Morning Benders - Cold War - бас-таба, видео

Печатать
Просмотров: 106
Уроки эстрадного вокала в Санкт-Петербурге
-----------------------------------------
Cold War - The Morning Benders (Big Echo)
-----------------------------------------

E-mail: jordansummers226@gmail.com
Tuning: Standard (EADG)

Intro & Verse I (0:00-0:38)
G|----9--------------------8--------6-------------6------------|
D|-----------6------9--------------6-------4-----6------6------|
A|--77-7------------------6-6-5-4-4-------4-----4------4-4-6-7-|
E|-0--------4-4----7-7-------------------2---------------------|

G|---9--------------------8--------6-------------6------------|
D|----------6------9--------------6-------4-----6------6------|
A|-77-7------------------6-6-5-4-4-------4-----4------4-4-6-7-|
E|---------4-4----7-7-------------------2---------------------|
  
G|---9--------------------8--------6-------------6------------|
D|----------6------9--------------6-------4-----6------6------|
A|-77-7------------------6-6-5-4-4-------4-----4------4-4-464-|
E|---------4-4----7-7-------------------2---------------------|

Chorus I (0:38-0:50)
G|------------------------------------------------------------------|
D|------------------------------------------------------------------|
A|-4-4-7--4-4-777777-7-9--7-7-999994-4-7--4-4-777777-7-9--7-7-99999-|
E|------------------------------------------------------------------|

Intro & Verse II (0:50-1:15)
G|---9--------------------8--------6-------------6------------|
D|----------6------9--------------6-------4-----6------6------|
A|-77-7------------------6-6-5-4-4-------4-----4------4-4-6-7-|
E|---------4-4----7-7-------------------2---------------------|

G|---9--------------------8--------6-----611------6-----------| < 11(eleven), not 1(one)
D|----------6------9--------------6-----4--------6------6-----|
A|-77-7------------------6-6-5-4-4--------------4------4-4-6\-|
E|---------4-4----7-7-----------------------------------------|

Chorus II (1:15-1:44)
G|------------------------------------------------------------------| 
D|------------------------------------------------------------------|
A|-----------------7-7-9--7-7-999994-4-7--4-4-777777-7-9--7-7-99999-|
E|------------------------------------------------------------------|

G|------------------------------------------------------------------|
D|------------------------------------------------------------------|
A|-4-4-7--4-4-777777-7-9--7-7-999994-4-7--4-4-777777-7-9--7-7-99999-|
E|------------------------------------------------------------------|

*note the break in beginning of second chorus for bass
Добавлено: 22.07.2013
Другие материалы по этой песне:
  • Аккорды и текст

Страница создана 22.07.2013
http://primanota.ru/the-morning-benders/cold-war-chords.htm
Привет, Гость.
Предлагаем пройти революционный курс по гитаре.
Подарок от PrimaNota.Ru, забирай!