PrimaNota.ru - самый крупный в мире бесплатный архив песенных текстов, аккордов, табулатур и нот


The Mono Lps - Die A Little Death - таба, видео

Регистрация Запомнить меня
Войти через:  Facebook Google Twitter Vk Yandex Mail.ru

The Mono Lps - Die A Little Death - таба, видео

Печатать
Просмотров: 132
Уроки эстрадного вокала в Санкт-Петербурге
Hey, Guys and Girls, this is my first tablature and I would say that it is
quite accurate. It is by a new band from Liverpool, named The Mono LP's and
this is off one of their albums which I have gladly took time to transcribe
by ear and share it with you lovely ladles and jellyspoons.
You should check the song first before learning at: http://www.youtube.com/watch?v=663mQEPVgak

Intro BPM= 80bpm

Guitar 1:

        Dm       A      Dm      Fm       Bm      Dm7     A       Dm
E -------5-------5-------5-------8-------2-------5-------5-------5----------|
B -------6-------5-------6-------9-------3-------6-------5-------6----------|
G -------7-------6-------7-------10------4-X8----5--X8---6-------7----------|
D -------7-------7-------7-------10------4-------7-------7-------7----------|
A -------5-------7-------5-------8-------2-------5-------7-------5----------|
E ---------------5---------------------------------------5------------------|


Main part BPM= 152bpm

main part:

Guitar 1:
      Dm
E ----10-----|
B ----10-----|
G ----10-----| X16 (Dm chord only)
D ----12-----|
A ----12-----|
E --5\10-----|

Guitar 2:

E --------------------------|
B --------------------------|
G --------12-10-------------| X16
D -----12----------10-12----|
A --------------12----------|
E --------------------------|


Nothing is played on the first verse

Verse 2:

Guitar 1:
      Dm
E ----10-----|
B ----10-----|
G ----10-----| X16 (Dm chord only)
D ----12-----|
A ----12-----|
E --5\10-----|

Guitar 2:


E --------------------------|
B --------------------------|
G --------12-10-------------| X16
D -----12----------10-12----|
A --------------12----------|
E --------------------------|

Chorus:
    Gm     A#m     A              Dm                 A (slide and stay at Dm)
E --3------6-------5--------------5------------------5\10------------|
B --3------6-------5--------------6------------------5\10------------|
G --3------6-------6--X4----------7-X4---------------6\10-X8---------|
D --5------8-------7--------------7------------------7\12------------|
A --5------8-------7--------------5------------------7\12------------|
E --3------6-------5---------------------------------5\10------------|

No guitar on verse 3

Verse 4:

Guitar 1:
      Dm
E ----10-----|
B ----10-----|
G ----10-----| X16 (Dm chord only)
D ----12-----|
A ----12-----|
E --5\10-----|

Guitar 2:


E --------------------------|
B --------------------------|
G --------12-10-------------| X16
D -----12----------10-12----|
A --------------12----------|
E --------------------------|


Chorus:
    Gm     A#m     A              Dm                 A (slide and stay at Dm)
E --3------6-------5--------------5------------------5\10------------|
B --3------6-------5--------------6------------------5\10------------|
G --3------6-------6--X4----------7-X4---------------6\10-X8---------|
D --5------8-------7--------------7------------------7\12------------|
A --5------8-------7--------------5------------------7\12------------|
E --3------6-------5---------------------------------5\10------------|

Solo:(Just a simple Dm pentatonic)

E -----13--10---------------------------------------------10--13----|
B -------------13--10-----------------------------10--13------------|
G ---------------------12--10-------------10--12--------------------|
D -----------------------------12-10--12----------------------------| X2
A ------------------------------------------------------------------|
E ------------------------------------------------------------------|

This section is also done twice.

E --13-bu-15---13-13-13--10---------------------------------------------------------------------------|
B ----------------------------13-bu-15---13-13-13--10-------------------------------------------------|
G ------------------------------------------------------12-bu-14---12-12-12--10-----------------------|
D ----------------------------------------------------------------------------12-bu-14---12-12-12--10-|
A ----------------------------------------------------------------------------------------------------|
E ----------------------------------------------------------------------------------------------------|

Final chorus:

Chorus:
    GM     A#m     A              Dm                 A (slide and stay at Dm)
E --3------6-------5--------------5------------------5\10------------|
B --3------6-------5--------------6------------------5\10------------|
G --3------6-------6--X4----------7-X4---------------6\10-X8---------|
D --5------8-------7--------------7------------------7\12------------|
A --5------8-------7--------------5------------------7\12------------|
E --3------6-------5---------------------------------5\10------------|
Добавлено: 07.12.2013
Другие материалы по этой песне:
  • Аккорды и текст

Страница создана 07.12.2013
http://primanota.ru/the-mono-lps/die-a-little-death-chords.htm
Привет, Гость.
Предлагаем пройти революционный курс по гитаре.
Подарок от PrimaNota.Ru, забирай!