PrimaNota.ru - самый крупный в мире бесплатный архив песенных текстов, аккордов, табулатур и нот


The Moms - Bedtime - таба, видео

Регистрация Запомнить меня
Войти через:  Facebook Google Twitter Vk Yandex Mail.ru

The Moms - Bedtime - таба, видео

Печатать
Просмотров: 63
The Moms: Bedtime
Tuning: D standard (all strings down a whole step)

This is by ear so some parts may not be 100%, but this should give you the idea. These 
chords are hard to play and sing, but I'm pretty sure they are right.

Intro/Verse(maybe take off the open notes on the verse?)
D|-x0------------------------------|------------------------------|
A|-x0------------------------------|------------------------------|
F|-x0--8--8--8-8-8-9--9-9--9-8-8---|-8-8-8-8-8-8-8-9--9-9-9-8-8-8-|
C|-x0--9--9--9-9-9-9--9-9--9-9-9---|-9-9-9-9-9-9-9-9--9-9-9-8-8-8-|
G|-x0--7--7--7-7-7-7--7-7--7-7-7---|-7-7-7-7-7-7-7-7--7-7-7-7-7-7-|
D|-x0--0--0--0-0-0-0--0-0--0-0-0---|-0-0-0-0-0-0-0-0--0-0-0-0-0-0-|

D|---------------------------|--------------------------|
A|---------------------------|--------------------------|
F|--8-8-8-8-8----------------|-8-8-8-8-8-8-8------------|
C|--6-6-6-6-6-9-9-9-9-9-9-9--|-6-6-6-6-6-6-6-9--9-9-9-9-|
G|--7-7-7-7-7-7-7-7-7-7-7-7--|-7-7-7-7-7-7-7-7--7-7-7-7-|
D|--5-5-5-5-5-5-5-5-5-5-5-5--|-5-5-5-5-5-5-5-5--5-5-5-5-|

Chorus(Sorry if I don't stay up all night)
D|----------------------|---------------------|
A|----------------------|---------------------|
F|------------9-9-9-8---|----------------8~---|
C|--4-4-------9-9-9-9-x3|--4-4-4-4-4-4-4-6~---|
G|--4-4-------7-7-7-7---|--4-4-4-4-4-4-4-7~---|
D|--2-2-2-4-5-0-0-0-0---|--2-2-2-2-2-2-2-5~---|

Bridge(yup, I said that it's bedtime)
|----------------------------------------------------------|
|----------------------------------------------------------|
|------------8-------------8----------------8---------8----|
|--2-2-------6---2-2-------6----4-4---------6----9-9--6-9--|
|--2-2-------7---2-2-------7----4-4---------7----7-7--7-7--|
|--0-0-0-0-0-5---0-0-0-0-0-5----2-2-2-2-2-2-5----5-5--5-5--|
PM     * * *         * * *          * * * *
(second time on the bridge play the whole thing pm'ed)

Outro is the same as intro

End on either
|-------   |----|
|-------   |----|
|--8----   |----|
|--9---- OR|--9-|
|--7----   |--7-|
|--0----   |--5-| (not sure which one)
Добавлено: 07.06.2013
Другие материалы по этой песне:
  • Аккорды и текст

Страница создана 07.06.2013
http://primanota.ru/the-moms/bedtime-chords.htm
Привет, Гость.
Предлагаем пройти революционный курс по гитаре.
Подарок от PrimaNota.Ru, забирай!