PrimaNota.ru - самый крупный в мире бесплатный архив песенных текстов, аккордов, табулатур и нот


The Modern - Industry - таба, видео

Регистрация Запомнить меня
Войти через:  Facebook Google Twitter Vk Yandex Mail.ru

The Modern - Industry - таба, видео

Печатать
Просмотров: 65
-------------------------------------------------------------------------------
                            Industry - The Modern
-------------------------------------------------------------------------------
Tabbed by: Myself
Email: cpochie92@gmail.com

Tuning: Standard

Excellent song by The Modern, formerly known as Matinee Club. The band's website may be 
found at: http://www.myspace.com/matineeclub


--Chords (Verse)--

Each chord gets two measures, so:


Ab                            Fm
  She always dreamt of moving station



--Pre-chorus Riff--

This riff follows the chords of the chorus; it's a simple pattern of fifth chords. Play 
each note individually without letting them ring.

       Cm           Fm                   Ab
e|--------------------------|-------------------------|
B|--------------------------|-------------------------|
G|--------5-----------------|-------------------------|
D|-----5-----5--------3-----|--------6-----6-----6----|
A|--3--------------3-----3--|-----6-----6-----6-----6-|
E|--------------1-----------|--4----------------------|

--Chorus Chords--

The chorus uses the same chords as the pre-chorus, so:


Cm  Fm               Ab
    You could be the one for me


The last phrase of the chorus adds two more chords to the progression, so:


Cm  Fm              Ab       Gm                Ab
    You could be my industry,  and we'll dance together on the factory floor
Добавлено: 21.09.2013
Другие материалы по этой песне:
  • Аккорды и текст

Страница создана 21.09.2013
http://primanota.ru/the-modern/industry-chords.htm
Привет, Гость.
Предлагаем пройти революционный курс по гитаре.
Подарок от PrimaNota.Ru, забирай!