PrimaNota.ru - самый крупный в мире бесплатный архив песенных текстов, аккордов, табулатур и нот


The Mills - Lobo-hombre En Paris - таба, видео

Регистрация Запомнить меня
Войти через:  Facebook Google Twitter Vk Yandex Mail.ru

The Mills - Lobo-hombre En Paris - таба, видео

Печатать
Просмотров: 57
Artista: The Mills
Titulo: Lobo Hombre en Paris
Transcripción: Darkwin Sánchez

INTRO Guitarra 1
      A       Cm#
E||---5--------4-------|
B||---5--------5-------|
G||--------------------| x3
D||--------------------|
A||--------------------|
E||--------------------|

Entra el sintetizador                                                           
E||----5-4-----5-4-----5-4----5-4------|
B||--5-------5-------5------5----------|
G||------------------------------------| x2
D||------------------------------------|
A||------------------------------------|
E||------------------------------------|
                                                  
Guitarra 1
E||-----555-44-----555-44-----555-44-----555-44--------|
B||--555--------555--------555--------555--------------|
G||----------------------------------------------------|
D||----------------------------------------------------|
A||----------------------------------------------------|
E||----------------------------------------------------|\
                                                         \
Guitarra 2                                                (x2)
       A5         A5         C#5        C#5       A5     /
E||----------------------------------------------------|/     
B||----------------------------------------------------|
G||------------------------66666666---66666666---------|
D||--77777777---77777777---66666666---66666666---[7~]--|
A||--77777777---77777777---44444444---44444444---[7~]<-----(solo la 2da vez.) 
E||--55555555---55555555-------------------------[5~]--|

VERSO Guitarra 2
     A  Cm#  A  Cm#  A  Cm#  A  Cm#
E||--5---4---5---4---5---4---5---4------|
B||--5---5---5---5---5---5---5---5------|
G||------------------6---6---6---6------| 
D||------------------7---6---7---6------|
A||------------------7---4---7---4------|
E||------------------5---4---5---4------|
   
CORO Guitarra 1
E||-----555-44-----555-44-----555-44-----555-44-----555-44-----555-44--|
B||--333--------333--------222--------222--------333--------333--------|
G||--------------------------------------------------------------------|
D||--------------------------------------------------------------------|
A||--------------------------------------------------------------------|
E||--------------------------------------------------------------------|

Guitarra 2                                                      
E||------------------------|
B||------------------------|
G||--3~-------2~-----------|
D||--3~-------2~-----------|
A||--1~-------0~-----------|
E||------------------------|

Guitarras 1&2                                             
       A5         A5         C#5        C#5      A5        
E||----------------------------------------------------|     
B||----------------------------------------------------|
G||------------------------66666666---66666666---------| x2
D||--77777777---77777777---66666666---66666666---[7~]--|
A||--77777777---77777777---44444444---44444444---[7~]--| <----(solo la 2da vez.) 
E||--55555555---55555555-------------------------[5~]--|


PUENTE


Y luego repite el verso y el coro…
Gracias.
Добавлено: 03.10.2013
Другие материалы по этой песне:
  • Аккорды и текст

Страница создана 25.09.2013
http://primanota.ru/the-mills/lobo-hombre-en-paris-chords.htm
Привет, Гость.
Предлагаем пройти революционный курс по гитаре.
Подарок от PrimaNota.Ru, забирай!