PrimaNota.ru - самый крупный в мире бесплатный архив песенных текстов, аккордов, табулатур и нот


The Mermen - Splashin With The Mermaid - таба, видео

Регистрация Запомнить меня
Войти через:  Facebook Google Twitter Vk Yandex Mail.ru

The Mermen - Splashin With The Mermaid - таба, видео

Печатать
Просмотров: 112
-------------------------------------------------------------------------------
Splashin' With The Mermaid – The Mermen
-------------------------------------------------------------------------------

Tabbed by: Nathan
Email: brokenmarx@hotmail.com

08/02/2007

Tuning: Standard -  e b g D A E

e|---------------------------------------------------------------------------|
B|--------------9-------12-------9-------------------------------------------|
G|---------9------9--------9-------9----9---------9---------------8----(8)---|
D|--9-9h11---11-----11-------11------11------11-----11----11-----10------(11)|
A|----------------------------------------12----12-----12----x---11----------|
E|---------------------------------------------------------------------------|

e|---------------------------------------------------------------------------|
B|--------------9-------12-------9-------------------------------------------|
G|---------9------9--------9-------9----9---------9------------------8-9p8---|
D|--9-9h11---11-----11-------11------11------11-----11----11-------10------11|
A|----------------------------------------12----12-----12----x---11----------|
E|---------------------------------------------------------------------------|

e|---------------------------------------------------------------------------|
B|--------------9-------12-------9-------------------------------------------|
G|---------9------9--------9-------9----9---------9------------------8-9p8---|
D|--9-9h11---11-----11-------11------11------11-----11----11-------10------11|
A|----------------------------------------12----12-----12----x---11----------|
E|---------------------------------------------------------------------------|

e|---------------------------------------------------------------------------|
B|--------------9-------12-------9-------------------------------------------|
G|---------9------9--------9-------9----9---------9------------------8—8---8-|
D|--9-9h11---11-----11-------11------11------11-----11----11-------10-11-10--|
A|----------------------------------------12----12-----12----x---11----------|
E|---------------------------------------------------------------------------|

Solo 1

e|---------9------------------------------------------------------------|
B|--9-12-9-9-12—-9~--9--9-----------9----9—-9-9----------------9--------|
G|--9--9-9—---9—-9~-11--9—-9~--9--9-9-x-11-11-9-9---------99---9--9-9---|
D|------------------------11~--9-11-------------11p9h11~--99h11--11-9---|
A|----------------------------------------------------------------------|
E|----------------------------------------------------------------------|

e|-----------------------------------------------------------------|
B|----------12\9~-----------12-x-9-12-9--9-9-----------9----9------|
G|-11-11/13--------11-11/13------9--9-9-11-9--9-x------9----9—-9~--|
D|-------------------------------------------11-x-9h11---11---11~--|
A|-----------------------------------------------------------------|
E|-----------------------------------------------------------------|

e|-----------------9--9--9--9—-9~~----16-14-12-14-12--9---9--9------9-x--9—-9~~-|
B|----9----9----12-9-12-12-12-12~~----12-12-12-12-12-12--12-12-----12-x-12-12~~-|
G|--9-9--9-9h11-----------------------------------------------12------x---------|
D|-11---11----------------------------------------------------13----------------|
A|------------------------------------------------------------------------------|
E|------------------------------------------------------------------------------|





e|-9-9-12-9--9-7-7/9-7------------------------------------------------------|
B|-9-9--9-9-12-7-7/9-7-9---------9-----------9------------------------------|
G|---------------------9--9-9--9-9--9-9--9---9--9--9—-9~~--9--9-9-9----9----|
D|-----------------------11-9-11---11-9-11------11-9-11~~--9-11-9-9h11---11-|
A|--------------------------------------------------------------------------|
E|--------------------------------------------------------------------------|

e|------------------------------------------------------------------|
B|-9-------12-------9-----------------------------------------------|
G|---9--------9-------9----9-----------9------------------8-9p8-----| Etc.
D|----11-------11-------11-------11------11----11-------10------11--|
A|----------------------------12----12------12----x---11------------|
E|------------------------------------------------------------------|

e|------------------------------------------------------------|
B|--------------9-------12-------9----------------------------|
G|---------9------9--------9-------9----9---------9-----------|
D|--9-9h11---11-----11-------11------11------11-----11----11--|
A|----------------------------------------12----12-----12----x|
E|------------------------------------------------------------|

With small variations at the end:

e|---------------------|
B|--9-10-12-10-9-10-12-|
G|--9--9--9--9-9--9—9--|
D|---------------------|
A|---------------------|
E|---------------------|

          And

e|-------------------|
B|--9-12-9--9-9------|
G|--9--9-9-11-9--9-9-|
D|--------------11-9-|
A|-------------------|
E|-------------------|

Solo 2

e|--9-12-9--9-7/9----9------------------------------------------------|
B|--9--9-9-12-7/12---9--9-9----------9-------9-9----------------9-----|
G|---------------------11-9--9-9-9---9------11-9-9----9~--9-9---9-9-9-|
D|--------------------------11-9-9h11-11-11-----11p9h11~--9-9h11-11-9-|
A|--------------------------------------------------------------------|
E|--------------------------------------------------------------------|

e|--12-14-12-9-7-9~--12-9--9-9---------------------------------------|
B|--12-12-12-9-7-9~---9-9-12-9--9------9--9-9--9-9--9-9----9---------|
G|------------------------------9-h11-11-11-9-11-9-11—9h11p9---------|
D|-----------------------------------------------------------11-9-11-|
A|-------------------------------------------------------------------|
E|-------------------------------------------------------------------|

e|--7-7-7-7/9-9-9-9/12-12-12--14-14-14-16-16-16-14-12-12~--|
B|--7-7-7-7/9-9-9-9/12-12-12--14-14-14-14-14-14-14-12-14~--|
G|---------------------------------------------------------|
D|---------------------------------------------------------|
A|---------------------------------------------------------|
E|---------------------------------------------------------|

e|----17-17-20--17---------------12-12-12-12-12-12--|
B|--18-------------18--22-18~----12-14-16-14-12-14--|
G|-----------------------------13-------------------|
D|--------------------------------------------------|
A|--------------------------------------------------|
E|--------------------------------------------------|

e|--12-9----9----------------9----------------------------|
B|--12-9--9-9--9-9----9--9---9-9-9-------------9---12-----|
G|-------11---11-9--9-9-11----11-9-9-9-----9----9----9----|    Etc.
D|-----------------11-------------11-9-9h11--11--11---11--|
A|--------------------------------------------------------|
E|--------------------------------------------------------|


For the third solo use the notes from the first ones, doing some bends. Improvise and be creative :)

The tab is not totally correct; if you want to make any corrections, just e-mail me.

Peace out,

Nathan

The Mermen's Official website: http://www.mermen.net/
| /  slide up
| \  slide down
| h  hammer-on
| p  pull-off
| ~  vibrato
| +  harmonic
| x  Mute note
===============================================================================

Добавлено: 27.05.2012
Другие материалы по этой песне:
  • Аккорды и текст

Страница создана 27.05.2012
http://primanota.ru/the-mermen/splashin-with-the-mermaid-chords.htm
Привет, Гость.
Предлагаем пройти революционный курс по гитаре.
Подарок от PrimaNota.Ru, забирай!