PrimaNota.ru - самый крупный в мире бесплатный архив песенных текстов, аккордов, табулатур и нот


The Menzingers - Sentimental Physics - таба, видео

Регистрация Запомнить меня
Войти через:  Facebook Google Twitter Vk Yandex Mail.ru

The Menzingers - Sentimental Physics - таба, видео

Печатать
Просмотров: 107
-------------------------------------------------------------------------------
                           SENTIMENTAL PHYSICS - The Menzingers
-------------------------------------------------------------------------------

Tuning: Drop C#

Intro:                                              *only do this on 2nd time
eb|--------------------------------------------------------|
Bb|--------------------------------------------------------|
Gb|-12///////////////////////////////////////////////14////|
Db|--------------------------------------------------------|
Ab|-10///////////////////////////////////////////////12////|
Db|--------------------------------------------------------|
  |                                                        | x2
eb|--------------------------------------------------------|
Bb|--------------------------------------------------------|
Gb|--------------------------------------------------------|
Db|--------------------------------------------------------|
Ab|------------5----5--7--9----9--7--2----2--4--0----0--4--|
Db|------------5----5--7--9----9--7--2----2--4--0----0--4--|


eb|-------------------------------------------------------------------------------------------------|
Bb|-------------------------------------------------------------------------------------------------|
Gb|-12////////////////////////////////////////14////12////////////////////////////////////////14////|
Db|-------------------------------------------------------------------------------------------------|
Ab|-10////////////////////////////////////////12////10////////////////////////////////////////12////|
Db|-------------------------------------------------------------------------------------------------|
  |                                                                                                 |
eb|-------------------------------------------------------------------------------------------------|
Bb|-------------------------------------------------------------------------------------------------|
Gb|-------------------------------------------------------------------------------------------------|
Db|-5--5--5--4--2--2--2-10-10-10-10--9--7--7--7--9--5--5--5--7--9--9--9--7--2--2--2--4--0--0--0--4--|
Ab|-5--5--5--4--2--2--2-10-10-10-10--9--7--7--7--9--5--5--5--7--9--9--9--7--2--2--2--4--0--0--0--4--|
Db|-5--5--5--4--2--2--2-10-10-10-10--9--7--7--7--9--5--5--5--7--9--9--9--7--2--2--2--4--0--0--0--4--|


Verse:
eb|---------------------------------------------------------------------|
Bb|---------------------------------------------------------------------|
Gb|-12------------------12////////////////////////////////////////14////|
Db|---------------------------------------------------------------------|
Ab|-10------------------10////////////////////////////////////////12////|
Db|---------------------------------------------------------------------|
  |                                                                     |
eb|---------------------------------------------------------------------|
Bb|---------------------------------------------------------------------|
Gb|---------------------------------------------------------------------|
Db|-5-------------9--7--5--5--5--7--9--9--9--7--2--2--2--4--0--0--0--4--|
Ab|-5-------------9--7--5--5--5--7--9--9--9--7--2--2--2--4--0--0--0--4--|
Db|-5-------------9--7--5--5--5--7--9--9--9--7--2--2--2--4--0--0--0--4--|


eb|--------------------------------------------------------------------------------------------------------|
Bb|--------------------------------------------------------------------------------------------------------|
Gb|-12//////////////////////////////////////14////12/////////////////////////////////////////14////12------|
Db|--------------------------------------------------------------------------------------------------------|
Ab|-10//////////////////////////////////////12////10/////////////////////////////////////////12////10------|
Db|--------------------------------------------------------------------------------------------------------|
  |                                                                                                        |
eb|--------------------------------------------------------------------------------------------------------|
Bb|--------------------------------------------------------------------------------------------------------|
Gb|--------------------------------------------------------------------------------------------------------|
Db|5--5--5--7--9--9--9--7--2--2--2--4--0--0--0--4--5--5--5--4--2--2--2--10-10-10-10--9--7--7--7--9--5------|
Ab|5--5--5--7--9--9--9--7--2--2--2--4--0--0--0--4--5--5--5--4--2--2--2--10-10-10-10--9--7--7--7--9--5------|
Db|5--5--5--7--9--9--9--7--2--2--2--4--0--0--0--4--5--5--5--4--2--2--2--10-10-10-10--9--7--7--7--9--5------|


Pre-Chorus:
eb|--------------------------------------------------------------------|
Bb|--------------------------------------------------------------------|
Gb|----------------5--5--5-5-5----------------------------5--5--5-5-5--|
Db|-0h2--2--2-2-2--5--5--5-5-5--5----------0h2--2--2-2-2--5--5--5-5-5--|
Ab|-0h2--2--2-2-2--3--3--3-3-3--5----------0h2--2--2-2-2--3--3--3-3-3--|
Db|-0h2--2--2-2-2---------------5----------0h2--2--2-2-2---------------|


Chorus:                           1st, 3rd ending            2nd ending               4th ending
eb|-----------------------------|--------------------------|------------------------|-----------------|
Bb|-----------------------------|--------------------------|------------------------|-----------------|
Gb|-----------------------------|-------------5--5--5-5-5--|------------------------|-----------------|
Db|-5--5--5-5-5--5-5-5--5-5-5-0h|2--2--2-2-2--5--5--5-5-5--|-2-2----2-2----10-9-7-5-|-2-2-2-2-2-2-2-2-|
Ab|-5--5--5-5-5--5-5-5--5-5-5-0h|2--2--2-2-2--3--3--3-3-3--|-2-2----2-2----10-9-7-5-|-2-2-2-2-2-2-2-2-|
Db|-5--5--5-5-5--5-5-5--5-5-5-0h|2--2--2-2-2---------------|-2-2----2-2----10-9-7-5-|-2-2-2-2-2-2-2-2-|


Guitar Solo/Bridge:
eb|-----------------------------------------------------------------|
Bb|-----------------------------------------------------------------|
Gb|-------------------------------------------------5-5-5-5-5-5-5-5-|
Db|-5-5-5-5-5-5-5-5-5-5-5-5-5-5-5-5-2-2-2-2-2-2-2-2-5-5-5-5-5-5-5-5-|
Ab|-5-5-5-5-5-5-5-5-5-5-5-5-5-5-5-5-2-2-2-2-2-2-2-2-3-3-3-3-3-3-3-3-|
Db|-5-5-5-5-5-5-5-5-5-5-5-5-5-5-5-5-2-2-2-2-2-2-2-2-----------------|
  |                                                                 | x2
eb|---------------------------7---------------------12121010--------|
Bb|-----7-8-10--8-------7-8-10--10-8----7-8-10--8-----------1012108-|
Gb|---7---------------7---------------7-----------------------------|
Db|-----------------------------------------------------------------|
Ab|-----------------------------------------------------------------|
Db|-----------------------------------------------------------------|


Chorus:                           1st, 3rd ending            2nd, 4th ending         
eb|-----------------------------|--------------------------|------------------------|
Bb|-----------------------------|--------------------------|------------------------|
Gb|-----------------------------|-------------5--5--5-5-5--|------------------------|
Db|-5--5--5-5-5--5-5-5--5-5-5-0h|2--2--2-2-2--5--5--5-5-5--|-2-2----2-2----10-9-7-5-|
Ab|-5--5--5-5-5--5-5-5--5-5-5-0h|2--2--2-2-2--3--3--3-3-3--|-2-2----2-2----10-9-7-5-|
Db|-5--5--5-5-5--5-5-5--5-5-5-0h|2--2--2-2-2---------------|-2-2----2-2----10-9-7-5-|


Outro:
eb|------------------------------------------------------------------------------------------------|
Bb|------------------------------------------------------------------------------------------------|
Gb|-12//////////////////////////////////////14////12/////////////////////////////////////////14////|
Db|------------------------------------------------------------------------------------------------|
Ab|-10//////////////////////////////////////12////10/////////////////////////////////////////12////|
Db|------------------------------------------------------------------------------------------------|
  |                                                                                                |
eb|------------------------------------------------------------------------------------------------|
Bb|------------------------------------------------------------------------------------------------|
Gb|------------------------------------------------------------------------------------------------|
Db|5--5--5--7--9--9--9--7--2--2--2--4--0--0--0--4--5--5--5--7--9--9--9--7--2--2--2--4--0--0--0--4--|
Ab|5--5--5--7--9--9--9--7--2--2--2--4--0--0--0--4--5--5--5--7--9--9--9--7--2--2--2--4--0--0--0--4--|
Db|5--5--5--7--9--9--9--7--2--2--2--4--0--0--0--4--5--5--5--7--9--9--9--7--2--2--2--4--0--0--0--4--|


eb|-------------------------------------------------------------------------------------------------|
Bb|-------------------------------------------------------------------------------------------------|
Gb|-12////////////////////////////////////////14////12////////////////////////////////////////14////|
Db|-------------------------------------------------------------------------------------------------|
Ab|-10////////////////////////////////////////12////10////////////////////////////////////////12////|
Db|-------------------------------------------------------------------------------------------------|
  |                                                                                                 |
eb|-------------------------------------------------------------------------------------------------|
Bb|-------------------------------------------------------------------------------------------------|
Gb|-------------------------------------------------------------------------------------------------|
Db|-5--5--5--4--2--2--2-10-10-10-10--9--7--7--7--9--5--5--5--7--9--9--9--7--2--2--2--4--0--0--0--4--|
Ab|-5--5--5--4--2--2--2-10-10-10-10--9--7--7--7--9--5--5--5--7--9--9--9--7--2--2--2--4--0--0--0--4--|
Db|-5--5--5--4--2--2--2-10-10-10-10--9--7--7--7--9--5--5--5--7--9--9--9--7--2--2--2--4--0--0--0--4--|


Real Outro:
eb|--------------------------------|
Bb|--------------------------------|
Gb|--------------------------------|
Db|-5----------9--7--5---(\)-------|
Ab|-5----------9--7--5---(\)-------|
Db|-5----------9--7--5---(\)-------|


************************************

| /   slide up
| \   slide down
| h   hammer-on
| p   pull-off
| ~   vibrato
| +   harmonic
| x   Mute note
| b   Bend
| pb  Pre-bend
| br  Bend release
| pbr Pre-bend release
| brb Bend release bend

************************************
Добавлено: 21.07.2015
Вам также может быть интересно:
Другие материалы по этой песне:
  • Аккорды и текст

Страница создана 21.07.2015
http://primanota.ru/the-menzingers/sentimental-physics-chords.htm
Привет, Гость.
Предлагаем пройти революционный курс по гитаре.
Подарок от PrimaNota.Ru, забирай!