PrimaNota.ru - самый крупный в мире бесплатный архив песенных текстов, аккордов, табулатур и нот


The Menzingers - Bad Things - таба, видео

Регистрация Запомнить меня
Войти через:  Facebook Google Twitter Vk Yandex Mail.ru

The Menzingers - Bad Things - таба, видео

Печатать
Просмотров: 125
Уроки эстрадного вокала в Санкт-Петербурге
Capo 3rd fret

Verse 1
                                 PM PM PM PM
E|---------------------------------------------------------|
B|---0--3---5-------0--3---5-------------------------------|
G|--4----4-4-4-4---4----4-4-4-4-----------5----------------|
D|-5------5---5---5------5---5---5--2--5--5----------------|
A|-------------------------------5--2--5--3----------------|
E|-------------------------------3--0--3-------------------|

Verse 2
                        PM PM PM PM
E|---------------------------------------------------------|
B|---------------------------------------------------------|
G|--------5---------5------------5-------------------------|
D|--5---2-5---5---2-5---5--2--5--5-------------------------|
A|--5---2-3---5---2-3---5--2--5--3-------------------------|
E|--3---0-----3---0-----3--0--3----------------------------|

Bridge

E|---333300-----------333300-------------------------------|
B|--1----------------1-------------------------------------|
G|--0-------044b420--0-------044b420-----------------------|
D|--2-------0--------2-------0-----------------------------|
A|--3-------2--------3-------2-----------------------------|
E|----------3----------------3-----------------------------|

Chorus

E|-------------------------|--------------------------------|
B|-------------------------|--------------------------------|
G|-4-----5-4-----5---------|-----5---5---7--------5---------|
D|-4---2-5-4---2-5---------|-5---5-5-5-5-7--------5---------|
A|-2---2-3-2---2-3---------|-5---3-5-3-5-5--------3---------|
E|-----0-------0-----------|-3-----3---3--------------------|

Ending

E|----------------------------------------------------------|
B|----------------------------------------------------------|
G|-----5-------5---5---9---5---9---5---5---5----------------|
D|-2---5---2---5---5---9---5---9---5---5---5---2------------|
A|-2---3---2---3---3---7---3---7---3---3---3---2------------|
E|-0-------0-----------------------------------0------------|


Sequence:

Verse 1
Verse 2
Bridge
Chorus
Verse 1
Chorus
Bridge
Ending
Добавлено: 31.12.2015
Другие материалы по этой песне:
  • Аккорды и текст

Страница создана 31.12.2015
http://primanota.ru/the-menzingers/bad-things-chords.htm
Привет, Гость.
Предлагаем пройти революционный курс по гитаре.
Подарок от PrimaNota.Ru, забирай!