PrimaNota.ru - самый крупный в мире бесплатный архив песенных текстов, аккордов, табулатур и нот


The Meg And Dia Band - The Last Great Star In Hollywood - таба, видео

Регистрация Запомнить меня
Войти через:  Facebook Google Twitter Vk Yandex Mail.ru

The Meg And Dia Band - The Last Great Star In Hollywood - таба, видео

Печатать
Просмотров: 60
-------------------------------------------------------------------------------------------
The Last Great Star In Hollywood – Meg and Dia
--------------------------------------------------------------------------------------------
Tabbed by: elektra91
Email: If you guys have any comments, please just post it at the comments box below please.Thanks.

Please do leave comments! This is my first tab ever, but I have realized that tabbing is 
tiring lol, so it might be my last one, I don't know yet. But anyway, awesome song by 
awesome band, and no one did a tab for it yet so.. here it is! :)
The tabs are not 100% accurate, and you probably have to figure out the exact timing 
the song, but it should be of some help I hope.

I tabbed it mainly from hearing the song but also from this video: 
http://www.youtube.com/watch?v=uPs9L24fhNE&feature=related
So thanks to JinbonLau for his video with the clear visual/audio.


Tuning: standard

Intro:

e|------------------------------------/12-12-----12-12------------------------------------|
B|14-14--------14-14---------14-14------------10~-------9~--5-5-7-7-----------------------|
G|------11~----------13~-----------13-----------------------------------------------------|
D|----------------------------------------------------------------------------------------|
A|----------------------------------------------------------------------------------------|
E|----------------------------------------------------------------------------------------|

e|-------------------------------------------------------------------------------------|
B|14-14--------14-14---------14-14-----------------------------------------------------|
G|------11~----------13~-----------13------------13-14---------------------------------|
D|-------------------------------------------------------------------------------------|
A|-------------------------------------------------------------------------------------|
E|-------------------------------------------------------------------------------------|

Carlos guitar:

Verse:
e|-----------------------------------------------------|
B|-----------------------------------------2+~---------|
G|-2-2-2-2-----2--2-2-2-----2--—2-2-2--1-1------1-1-1--|
D|---------4-4-----------------------------------------| Do this twice
A|----------------------4-4----------------------------|
E|-----------------------------------------------------|

The 3rd time:

e|-------------------------------------------------------------|
B|-------------------------------------------------------------|
G|-2-2-2-2-----2--2-2-2-----2--—2-2-2--1----4-6-4-6------------|
D|---------4-4-------------------------------------------------|
A|----------------------4-4------------------------------------|
E|-------------------------------------------------------------|


Chorus:
e|---------------------------------------------------------------------------|
B|---------------------------------------------------------------------------|
G|------7------9-------------------------------------------------------------|
D|--4---7--7---9-------------------------------------------------------------|
A|--4---5--7---7-------------------------------------------------------------|
E|--2------5-----------------------------------------------------------------|

Meg's guitar parts:
Verse:

I got my same old nose and no cheek bones...

e|-14-14-14-14-----------------------------------------------------------------------|
B|-------------17-17---17--17-17-17----14--14--14--14-14-14-12/0---------------------|
G|-----------------------------------------------------------------------------------|
D|-----------------------------------------------------------------------------------|
A|-----------------------------------------------------------------------------------|
E|-----------------------------------------------------------------------------------|

They've got seven floors, one on the East Coast..

e|-------------------12------------------------------------------------|
B|-14-14-14-14-12-12----12-12-12--14-14-14-14-14----12/0---------------|
G|---------------------------------------------------------------------|
D|---------------------------------------------------------------------|
A|---------------------------------------------------------------------|
E|---------------------------------------------------------------------|

They've got their visions, no one knows...

e|-------------------12---------------------------------------------------|
B|-14-14-14-14-12-12----12-12-12--14-14-14-14-14----------12-14-12-14-----|
G|-----------------------------------------------------13-----------------|
D|------------------------------------------------------------------------|
A|------------------------------------------------------------------------|
E|------------------------------------------------------------------------|

Chorus:

Only come in after Dia sings “I think I'm on the Brightside.”

e|----12-------------------------------------------------------------------------|
B|-10----10-12-12-12-10-12-10~--10-12-12~----------------------------------------|
G|-------------------------------------------------------------------------------|
D|-------------------------------------------------------------------------------|
A|-------------------------------------------------------------------------------|
E|-------------------------------------------------------------------------------|

“I hope I'm on the Brightside..”

e|----12-----------------------------------------------------------|
B|-10----10-12-12--10h12-10----10—12b14~----10-12-12~--------------|
G|--------------------------11-------------------------------------|
D|-----------------------------------------------------------------|
A|-----------------------------------------------------------------|
E|-----------------------------------------------------------------|


Bridge: Both guitars play the chords

e|----------------------------------------------------------------------------------|
B|----------------------------------------------------------------------------------|
G|-1111-1111------------------------------------------------------------------------|
D|-1111-1111-1212-1212-12121212--77-77----------------------------------------------|
A|-9-9--9-9--1212-1212-12121212--77-77----------------7-----------------------------|
E|-----------1010-1010-10101010--55-55----5~--7-9-7-9-------------------------------|

e|-----------------------------------------------------------------------------------|
B|-----------------------------------------------------------------------------------|
G|-777777---6----4-44444----5---6-66666----------------------------------------------|
D|-777777---6----4-44444----5---6-66666---7------------------------------------------|
A|-555555---4----2-22222----7---4-44444---7------------------------------------------|
E|----------------------------------------5------------------------------------------|

Meg's solo!! It's kind of a mix of the live version and the studio version... though both 
about the same anyways.

e|-------------------------------------------------------------------------|
B|-------------------------------------------------------------------------|
G|---------------------------------9h10h11-9h10h11-------------------------|
D|-------------7h9-7~---9h11-9-7-9------------------11~-----9-7-9-7~-------|
A|-7-9-7~--7-9-------------------------------------------------------------|
E|-------------------------------------------------------------------------|

e|-------------------------------------------------------------------------|
B|-------------------------------------------------------------------------|
G|-------------------------------------------------------------------------|
D|-------------------------------------------------------------------------|
A|-9-7-9--------9-9-7-7~---------------------------------------------------|
E|-------9~--------------7-7-7-5-------------------------------------------|

e|----------------------------------------------------------------------------|
B|----------------------------------------------------------------------------|
G|-/7-7-6~--------------------------------------------------------------------|
D|---------7-7-9-9~-----7h9b11-9-7h9-7~---------------------------------------|
A|---------------------------------------7-7h9-9~----7-5-5-4~-----------------|
E|----------------------------------------------------------------------------|


Carlos part during meg's solo:
Same chords as chorus

| /  slide up
| \  slide down
| h  hammer-on
| p  pull-off
| ~  vibrato
| +  harmonic
| x  Mute note
===============================================================================
Добавлено: 05.10.2013
Другие материалы по этой песне:
  • Аккорды и текст

Страница создана 05.10.2013
http://primanota.ru/the-meg-and-dia-band/the-last-great-star-in-hollywood-chords.htm
Привет, Гость.
Предлагаем пройти революционный курс по гитаре.
Подарок от PrimaNota.Ru, забирай!