PrimaNota.ru - самый крупный в мире бесплатный архив песенных текстов, аккордов, табулатур и нот


The Meg And Dia Band - Santa Barbara - таба, видео

Регистрация Запомнить меня
Войти через:  Facebook Google Twitter Vk Yandex Mail.ru

The Meg And Dia Band - Santa Barbara - таба, видео

Печатать
Просмотров: 97
Intro:

E---------------------------------------------------------------------------|
B---------------5—8----6--------6—5-------------------------5-5-------------|
G--5-5—7-7---------------0-0--------------------5-5—7-7---------------------|
D--------------------------------------------7-7----------------------------|
A---------------------------------------------------------------------------|
E---------------------------------------------------------------------------|

E—3----------------------|
B—1------3------1--------|
G—2------2------2--------|
D—2------2------2--------|
A------------------------|
E------------------------|

E--------------------------------------------------|
B-----------------5-5----5-----4-----1-------------|
G—5-5—7-7-----------5-----5-----2------------------|
D-------------------------5-----5-----2------------|
A--------------------------------------------------|
E--------------------------------------------------|

Verse:
         (3x)         [on a dead artist's grave]
E—3------------3-------------|
B—5------------5-------------|
G—5---5---5---5--------------|
D—3---5---5---3---5----------|
A—3---3---2---3---5----------|
E---------------------3------|

Chorus:

   Am-Gm [I found a spot, where the drunk never got to..]

E-------------------------------------------|
B-----------------5-8---6---------6-5-------|
G—5-5—7-7--------------0-0------------------|
D-------------------------------------------|
A-------------------------------------------|
E-------------------------------------------|
[and it rocks me gently, silent, silent]

i still haven't tabbed the bridge, sorry MAD lovers.
Добавлено: 06.09.2013
Другие материалы по этой песне:
  • Аккорды и текст

Страница создана 06.08.2013
http://primanota.ru/the-meg-and-dia-band/santa-barbara-chords.htm
Привет, Гость.
Предлагаем пройти революционный курс по гитаре.
Подарок от PrimaNota.Ru, забирай!