PrimaNota.ru - самый крупный в мире бесплатный архив песенных текстов, аккордов, табулатур и нот


The Meg And Dia Band - Here Here And Here - аккорды и текст, видео

Регистрация Запомнить меня
Войти через:  Facebook Google Twitter Vk Yandex Mail.ru

The Meg And Dia Band - Here Here And Here - аккорды и текст, видео

Печатать
Просмотров: 81
Here Here And Here
The Meg And Dia Band
Meg & Dia

Here, here and here


Intro :

Riff 1
e-----------------------------------------------------------------------------------------------|
B------6/3--------------------------------------------------------------------------------------|
G-----------5--5/7--3---------------------------------------------------------------------------|
D-----------------------------------------------------------------------------------------------|
A-----------------------------------------------------------------------------------------------|
E-----------------------------------------------------------------------------------------------|


Riff 2
e-----------------------------------------------------------------------------------------------|
B-----6---6---6---6---6---6---6---6-------------------------------------------------------------|
G-----------------------------------------------------------------------------------------------|
D---5---5---------------------------------------------------------------------------------------|
A-----------5---5---6---6-----------------------------------------------------------------------|
E---------------------------6---6---------------------------------------------------------------|


Riff 3
e------------------------------------------------------------------------------------------------|
B-----6--6/8---------6----6--6/8-----------------6--6/8----------6-----------6-------------------|
G-------------7--7-8-------------7--7--5--3--------------7--7-8------7--7-8-----7-7--5-----------|
D---------------------------------------------------------------------------------------6--------|
A------------------------------------------------------------------------------------------------|
E------------------------------------------------------------------------------------------------|


Gm              Dm7     Eb9           Bb9
The time of my life, a record of myself
Gm                  Dm7      Eb9      Bb9
An accurate sketch of perfect health
Gm                 Dm7       Eb9      Bb9
A roof on my head, shoes on my feet
Gm              Dm7          Eb9      Bb9
Plenty of room, plenty to eat

Gm            Dm7          Eb9       Bb9
Been very far, made lots of friends
Gm                     Dm7        Eb9     Bb9
And I love my mother, hope to see her again
Bb9                                    Gm
I'm a wanderer now, sorrow befalls me
Bb9                                    Gm
I laugh often so I suppose I'm gonna be fine
Bb9                                    Gm
Mozart he said there's nothing to composing
Bb9
And that's all we do
          Gm
We just write and play and write and play and write and...

Bb9
Here, here and here
                    Gm                  Eb9
He pointed to his heart and mind and ears
Bb9
He said here, here and here
                    Gm                  Eb9
He pointed to his heart and mind and ears
Bb9
Here, here and here
                    Gm                   Eb9
He pointed to his heart and mind and ears
Bb9
He said here, here and here
                    Gm                   Eb9
He pointed to his heart and mind and ears

Bb9 Gm Eb9 x6


Bb9
Mozart he said there's nothing to composing
(Here, here and here)
Gm              Eb9
Yeah, yeah, yeah         ....................


By Wiliam Severines
Добавлено: 26.07.2013
Другие материалы по этой песне:
  • Аккорды и текст

Страница создана 26.07.2013
http://primanota.ru/the-meg-and-dia-band/here-here-and-here-chords.htm
Привет, Гость.
Предлагаем пройти революционный курс по гитаре.
Подарок от PrimaNota.Ru, забирай!