PrimaNota.ru - самый крупный в мире бесплатный архив песенных текстов, аккордов, табулатур и нот


The Mayfield Four - White Flag - аккорды и текст, таба, видео

Регистрация Запомнить меня
Войти через:  Facebook Google Twitter Vk Yandex Mail.ru

The Mayfield Four - White Flag - аккорды и текст, таба, видео

Печатать
Просмотров: 160
Уроки эстрадного вокала в Санкт-Петербурге
White Flag
The Mayfield Four
This is based on the acoustic version Myles played at Bofest (2009), all by ear. But as I am human, 
this may not be 100% accurate, so feel free to make any correction. Anyway, I hope this helps you!
Tabbed by: AlterCreed95
Song: White Flag - The Mayfield Four



Intro

E|----0--0----0--0----0--0----0--0----|
B|----0--0----0--0----9--0----0--0----|
G|----6--8----9--6----9--8----9--6----|
D|----9--9----9--9----9--9----9--9----|
A|----7--7----7--7----7--7----7--7----|
E|------------------------------------|



1st verse

(just keep playing the intro)

My guard fell for you today, now I will surrender
Take this prisoner, make him something better
Reach down and pull me up, don't let your captive go
'Cause love's wounds have made me weak
Can't stand up on my own



Chorus
E                            A9
'Cause you bring me to my knees
     E              A9
For you I'd do anything



2nd verse

(just keep playing the intro)

White flag flies above, this is what I've chosen
I'll change anything now that my pride is broken



Chorus
E                            A9
'Cause you bring me to my knees
     E              A9
For you I'd do anything



Bridge

E|----0-x-x-x---0-x-x-x---0-x-x-x---0-x-x-x-|
B|----0-x-x-x---0-x-x-x---0-x-x-x---0-x-x-x-|
G|----6-x-x-x---8-x-x-x---9-x-x-x---8-x-x-x-|
D|----9-x-x-x---9-x-x-x---9-x-x-x---9-x-x-x-|
A|----7-x-x-x---7-x-x-x---7-x-x-x---7-x-x-x-| just hear the song and you'll 
E|------------------------------------------| get the strumming for this part, it's not hard

The grace you give will always fill me up
And I'll savor every bit of that fortune
But if in time this love turns to dust
I pray I don't endure that torture



Chorus
E                            A9
'Cause you bring me to my knees
     E              A9
For you I'd do anything



Ending verse
E
Can you show me how to feel again?

I'll do anything, you need my friend
      A9
And together we will always span time
     E              A9
For you I'd do anything



Outro
After you play that A9 chord from the Ending Verse, 
you can play the Intro guitar part 2 times, 
and then finish like this:

E|----0--0----0--0----0--0----0--0----|
B|----0--0----0--0----0--0----0--0----|
G|----9--6----9--6----9--6----9--6----|
D|----9--9----9--9----9--9----9--9----|
A|----7--7----7--7----7--7----7--7----|
E|------------------------------------|
Добавлено: 07.08.2015
Другие материалы по этой песне:
  • Аккорды и текст

Страница создана 17.06.2012
http://primanota.ru/the-mayfield-four/white-flag-chords.htm
Привет, Гость.
Предлагаем пройти революционный курс по гитаре.
Подарок от PrimaNota.Ru, забирай!