PrimaNota.ru - самый крупный в мире бесплатный архив песенных текстов, аккордов, табулатур и нот


The Mayfield Four - No One Nothing - таба, видео

Регистрация Запомнить меня
Войти через:  Facebook Google Twitter Vk Yandex Mail.ru

The Mayfield Four - No One Nothing - таба, видео

Печатать
Просмотров: 91
-------------------------------------------------------------------------------
                             SONG NAME - Band Name
-------------------------------------------------------------------------------
Tabbed by:
E-mail:

Tuning: Standard

Verse

Listen for strumming pattern

e|-----0-----------------------------------------------------------------------|
B|-----0-----------------------------------------------------------------------|
G|-----6-----------------3-----------------------------------------------------|
D|-----5-----------------2-----------------------------------------------------|   
A|-----x-----------------4-----------------------------------------------------|
E|-----5-----------------2-----------------------------------------------------|           


Chorus 
       
e|-----0-------0----0----0-------------------------------------------------------|
B|-----0-------0----0----0-------------------------------------------------------|
G|-----1-------3----4----6-------------------------------------------------------|
D|-----2-------4----5----7-------------------------------------------------------|
A|-----2-------4----5----7-------------------------------------------------------|
E|-----0-------2----3----5-------------------------------------------------------|

      
This is basically the whole song.



************************************

| /   slide up
| \   slide down
| h   hammer-on
| p   pull-off
| ~   vibrato
| +   harmonic
| x   Mute note
| b   Bend
| pb  Pre-bend
| br  Bend release
| pbr Pre-bend release
| brb Bend release bend

************************************
Добавлено: 13.06.2016
Другие материалы по этой песне:
  • Аккорды и текст

Страница создана 13.06.2016
http://primanota.ru/the-mayfield-four/no-one-nothing-chords.htm
Привет, Гость.
Предлагаем пройти революционный курс по гитаре.
Подарок от PrimaNota.Ru, забирай!