PrimaNota.ru - самый крупный в мире бесплатный архив песенных текстов, аккордов, табулатур и нот


The Mayfield Four - Forfeit - аккорды и текст, видео

Регистрация Запомнить меня
Войти через:  Facebook Google Twitter Vk Yandex Mail.ru

The Mayfield Four - Forfeit - аккорды и текст, видео

Печатать
Просмотров: 118
Уроки эстрадного вокала в Санкт-Петербурге
Forfeit
The Mayfield Four
-------------------------------------------------------------------------------
                             Forfeit - The Mayfield Four
-------------------------------------------------------------------------------
Tabbed by:  Cody

Tuning: Standard


To play the F# and G# chords used in this song, I like to play the bottom 4 strings only, 
as follows:

F# 2443xx

G# 4556xx




Verse: 
C    G             F
Once again, I must fold
    C       G               F
Get in, get out, before I'm broke
    C      G  F                C     G
For what's at stake, means too much
            F
too much to me


Pre-Chorus:

Bb           Am
Tremble as I get up from the table


           C
e|---------8---------------------------------------------------------------|
B|---------8---------------------------------------------------------------|
G|---------9----------9p10--9--9-------------------------------------------|
D|---------10-  X3   ------------------------------------------------------|
A|---------10--------------------------------------------------------------|
E|---------8---------------------------------------------------------------|

        Bb      Am
cause I gambled foolishly


Chorus:

    C  G                F        F#
And I,   can't take the drama no more
        G             G#
so I'll throw down my hand and say
     Am              D
It's over, please forgive me,
     Am         D
It's over I forfeit so I won't 

C     G  F           C   G   F
Bleed                ooooooooohh


Verse 2:
    C           G           F
The game played well, for  awhile
        C             G             F
just to hold, just to feel, just to smile



Pre-Chorus:

   Bb              Am
It felt to good to breathe again my angel

           C
e|---------8---------------------------------------------------------------|
B|---------8---------------------------------------------------------------|
G|---------9----------9p10--9--9-------------------------------------------|
D|---------10-  X3   ------------------------------------------------------|
A|---------10--------------------------------------------------------------|
E|---------8---------------------------------------------------------------|

    Bb                Am
but reservation won't release


Chorus:

    C  G                F        F#
And I,   can't take the drama no more
        G             G#
so I'll throw down my hand and say
     Am              D
It's over, please forgive me,
     Am         D
It's over I forfeit so I won't 


Bridge:

Basically just play the   Bb  Am  C   pre-chorus progression again. 

However, the chords are held for slightly longer beats. 


Final verse:

    C            G             F
The risk I could not afford to take
C                G             F
eclipsed all the love that you made
    C  G    F
and so I'll go, 
    C  G    F
and so I'll go, 
    C  G    F
and so I'll go, 
    C  G    F
and so I'll go 


Chorus:

    C  G                F        F#
And I,   can't take the drama no more
        G             G#
so I'll throw down my hand and say
     Am              D
It's over, please forgive me,
     Am              D
It's over, please forgive me,
     Am              D
It's over, please forgive me,
     Am              D
It's over, please forgive me,


************************************

| /   slide up
| \   slide down
| h   hammer-on
| p   pull-off
| ~   vibrato
| +   harmonic
| x   Mute note
| b   Bend
| pb  Pre-bend
| br  Bend release
| pbr Pre-bend release
| brb Bend release bend

************************************
Добавлено: 13.06.2016
Другие материалы по этой песне:
  • Аккорды и текст

Страница создана 13.06.2016
http://primanota.ru/the-mayfield-four/forfeit-chords.htm
Привет, Гость.
Предлагаем пройти революционный курс по гитаре.
Подарок от PrimaNota.Ru, забирай!