PrimaNota.ru - самый крупный в мире бесплатный архив песенных текстов, аккордов, табулатур и нот


The Mayfield Four - Eden Turn The Page - аккорды и текст, таба, видео

Регистрация Запомнить меня
Войти через:  Facebook Google Twitter Vk Yandex Mail.ru

The Mayfield Four - Eden Turn The Page - аккорды и текст, таба, видео

Печатать
Просмотров: 116
Eden Turn The Page
The Mayfield Four
Tabbed by: thom_alexander
Email: thomasditchburn@hotmail.co.uk

Tuning: Standard


1st Verse

E5            Asus2  

Farewell,     goodbye
God knows,    we tried
Our union,    so unsure      
Could never,  endure             

    E5         Asus2
e|---0-----------0-----------------------------------------------|
B|---0-----------0-----------------------------------------------|
G|---9-----------2-----------------------------------------------| x4
D|---9-----------2-----------------------------------------------|
A|---7-----------0-----------------------------------------------|
E|---X-----------X-----------------------------------------------|



1st Chorus

E5                      Bsus4                           Asus2
So we turn the page and say good-bye and walk away from everything,

E5                       Bsus4
that we worked so hard to save

    E5    Bsus4  Asus2   E5     Bsus4
e|---0------0------0------0------0-------------------------------|
B|---0------0------0------0------0-------------------------------|
G|---9------4------2------9------4-------------------------------| x1
D|---9------4------2------9------4-------------------------------|
A|---7------2------0------7------2-------------------------------|
E|---X------X------X------X------X-------------------------------|


2nd Verse

E5                   Asus2  

Brought down,        by our storm
our eden,            is no more
but we were so lost, in love
that we never,       found resolve

    E5         Asus2
e|---0-----------0-----------------------------------------------|
B|---0-----------0-----------------------------------------------|
G|---9-----------2-----------------------------------------------| x4
D|---9-----------2-----------------------------------------------|
A|---7-----------0-----------------------------------------------|
E|---X-----------X-----------------------------------------------|


2nd Chorus

E5                      Bsus4                           Asus2
So we turn the page and say good-bye and walk away from everything,

E5                       Bsus4
that we worked so hard to save

E5                               Bsus4
I don't wanna start all over and try and find another shoulder to 

Asus2    E5                       Asus2
lean on, cause yours made me feel safe


    E5    Bsus4   Asus2   E5     Bsus4
e|---0------0------0------0------0-------------------------------|
B|---0------0------0------0------0-------------------------------|
G|---9------4------2------9------4-------------------------------| x2
D|---9------4------2------9------4-------------------------------|
A|---7------2------0------7------2-------------------------------|
E|---X------X------X------X------X-------------------------------|



Bridge

Dsus2
And now our moving on,

C#m
This is my blessing and please stay strong,

C5
For What its Worth I'm wishing you the best

   Dsus2  C#m   C5   Asus2
e|---0-----0-----0-----0-------------------------------------------|
B|---0-----0-----0-----0-------------------------------------------|
G|---7-----6-----5-----9-------------------------------------------|
D|---7-----6-----5-----9-------------------------------------------|
A|---5-----4-----3-----7-------------------------------------------|
E|---X-----X-----X-----X-------------------------------------------|


3rd Chorus

E5                      Bsus4                           Asus2
So we turn the page and say good-bye and walk away from everything,

E5                       Bsus4
that we worked so hard to save

E5                               Bsus4
I don't wanna start all over and try and find another shoulder to 

Asus2    E5                       Asus2
lean on, cause yours made me feel safe
(Repeat Chorus)


    E5    Bsus4   Asus2   E5     Bsus4
e|---0------0------0------0------0-------------------------------|
B|---0------0------0------0------0-------------------------------|
G|---9------4------2------9------4-------------------------------| x4
D|---9------4------2------9------4-------------------------------|
A|---7------2------0------7------2-------------------------------|
E|---X------X------X------X------X-------------------------------|

(Play the above 2 more times as the outro)



| /  slide up
| \  slide down
| B  hammer-on
| p  pull-off
| ~  vibrato
| +  harmonic
| x  Mute note
===============================================================================
Добавлено: 26.06.2012
Другие материалы по этой песне:
  • Аккорды и текст

Страница создана 11.05.2012
http://primanota.ru/the-mayfield-four/eden-turn-the-page-chords.htm
Привет, Гость.
Предлагаем пройти революционный курс по гитаре.
Подарок от PrimaNota.Ru, забирай!