PrimaNota.ru - самый крупный в мире бесплатный архив песенных текстов, аккордов, табулатур и нот


The Maine - Time - таба, видео

Регистрация Запомнить меня
Войти через:  Facebook Google Twitter Vk Yandex Mail.ru

The Maine - Time - таба, видео

Печатать
Просмотров: 66
INTRO/VERSE
   E5    D#/E5    G5
e|--x------x----------------------|
B|--x------x----------------------|
G|--5(8x)--5(8x)------------------| (2x)[FOR INTRO] (4x) [FOR VERSE]
D|--5------5-------5--------------| 
A|--7------6-------5(8x)----------|
E|--x------x-------3--------------|

*In the verse, he kinda palm mutes the chords in the verse but it's still the same progression.

CHORUS
    Cadd9  G      Em7     Dsus4
e|---3-----3------3-------3---------------------------|
B|---3-----3------3-------3---------------------------|
G|---0-----0(3x)--0-------2---------------------------|
D|---2-----0------2-------0---------------------------|
A|---3-----2------2-------0---------------------------|
E|---x-----3------0-------x---------------------------|

*REPEAT INTRO/VERSE
*REPEAT CHORUS

BRIDGE
     B  A  G  F#  Cadd9
e|-----------------3---------|
B|-----------------3---------|
G|-----------------0---------| (5x)
D|---9--7--5--4----2---------|
A|---9--7--5--4----3---------|
E|---7--5--3--2----x---------|


e|--x------x----------------------|
B|--x------x----------------------|
G|--5(8x)--5(8x)------------------| (2x)
D|--5------5-------5--------------| 
A|--7------6-------5(8x)----------|
E|--x------x-------3--------------|

PALM MUTE 8x

FINAL CHORUS
    Cadd9  G      Em7     Dsus4
e|---3-----3------3-------3---------------------------|
B|---3-----3------3-------3---------------------------|
G|---0-----0(3x)--0-------2---------------------------| (2x)
D|---2-----0------2-------0---------------------------|
A|---3-----2------2-------0---------------------------|
E|---x-----3------0-------x---------------------------|

END ON G
Добавлено: 07.11.2013
Другие материалы по этой песне:
  • Аккорды и текст

Страница создана 07.11.2013
http://primanota.ru/the-maine/time-chords.htm
Привет, Гость.
Предлагаем пройти революционный курс по гитаре.
Подарок от PrimaNota.Ru, забирай!