PrimaNota.ru - самый крупный в мире бесплатный архив песенных текстов, аккордов, табулатур и нот


The Maine - So Criminal - таба, видео

Регистрация Запомнить меня
Войти через:  Facebook Google Twitter Vk Yandex Mail.ru

The Maine - So Criminal - таба, видео

Печатать
Просмотров: 146
-------------------------------------------------------------------------------
                           SO CRIMINAL - The Maine
-------------------------------------------------------------------------------
Tabbed by: Matthew Florio; http://www.facebook.com/smeeplayscheap
E-mail: shempashland@yahoo.com

Tuning: Standard

Chords:
E  022100 or 079900
G# 466544
A  x02220 or 577600
Eb x688xx or 069900
C# x46600 or 9x9900

Intro

I found three ways to play this:
1:                      2:                                 3:
e|---7777-4444-55555555-|----------------------------------|--------------------------------------|
B|---5555-4444-55555555-|---12121212-9999-1010101010101010-|--12121212----------------------------|
G|---4444-4444-66666666-|----9-9-9-9-8888--9-9-9-9-9-9-9-9-|--13131313----------------------------|
D|----------------------|----9-9-9-9-9999 1111111111111111-|--14141414--9-9-9-9-1111111111111111--|
A|----------------------|----------------------------------|--14141414-11111111-1212121212121212--|
E|----------------------|----------------------------------|---0 0 0 0-11111111-1212121212121212--|
[0:00 - 0:09]

then...
     E     G#    A
e|---0000--0000--00000000--------------------|
B|---0000--0000--55555555--------------------|
G|---4444--4444--66666666--------------------|
D|---6666--6666--77777777--------------------|
A|---7777--6666--00000000--------------------|
E|---0000------------------------------------|

Verse

*this is that palm muted/delay part you hear 
     E       A       E       A
e|------0-------0-------0-------0------------|
B|------5-------5-------5-------5------------|
G|-------4----4--4-------4----4--4-----------|
D|----6---6--6-6--6---6---6--6-6--6----------|
A|---7-7-----0-------7-7-----0---------------|
E|---0---------------0-----------------------|
"funny how..."

Pre Chorus
     C#       Gb       E        E    
e|--------0--------0--------0--------0-------|
B|--------0--------0--------0--------0-------|
G|------6--6-----4--4-----4--4-----4--4------|
D|----6-----6--6-----6--6-----6--6-----6-----|
A|---4-4------6-6------7-7------7-7----------|
E|-------------------------------------------|

Chorus

e|-------------------------------------------|
B|-------------------------------------------|
G|---4-4-4-4-6-6--4-4-4-4-6-6----------------|
D|---6-6-6-6-7-7--6-6-6-6-7-7----------------|
A|---7-7-7-6-0-0--7-7-7-6-0-0----------------|
E|---0-0-0--------0-0-0----------------------|
"CHRISTINAAAAA..."

Bridge

e|---0000------0000-0~0~---------------------|
B|---0000------0000-0~0~---------------------|
G|---1111-5555-6666-6~6~---------------------|
D|---2222-6666-7777-7~7~---------------------|
A|---2222-6666-7777-7~7~---------------------|
E|---0000-4444-5555-5~5~---------------------|

Guitar 1
e|-------------------------------------------|
B|-------------------------------------------|
G|-------------------------------------------|
D|---66666666-66666666-6666666666666666------|
A|---44444444-66666666-7777777777777777------|
E|-------------------------------------------|
"I cannot wait to see..."

Guitar 2
e|-------------------------------------------|
B|-------------------------------------------|
G|---66----------------9999------------------|
D|---66----------------9999------------------|
A|---44----------------7777------------------|
E|-------------------------------------------|

Outro
e|---0-0-0---0-0-0---0-0-0---0-0-0-|
B|---0-0-0---0-0-0---0-0-0---0-0-0-|
G|---1-1-1---1-1-1---1-1-1---1-1-1-|
D|---2-2-2---2-2-2---2-2-2---2-2-2-|
A|---2-2-2---2-2-2---2-2-2---2-2-2-|
E|---0-0-0---0-0-0---0-0-0---0-0-0-|



************************************

| /   slide up
| \   slide down
| h   hammer-on
| p   pull-off
| ~   vibrato
| +   harmonic
| x   Mute note
| b   Bend
| pb  Pre-bend
| br  Bend release
| pbr Pre-bend release
| brb Bend release bend

************************************
Добавлено: 13.06.2015
Другие материалы по этой песне:
  • Аккорды и текст

Страница создана 13.06.2015
http://primanota.ru/the-maine/so-criminal-chords.htm
Привет, Гость.
Предлагаем пройти революционный курс по гитаре.
Подарок от PrimaNota.Ru, забирай!