PrimaNota.ru - самый крупный в мире бесплатный архив песенных текстов, аккордов, табулатур и нот


The Maine - Identify - аккорды и текст, таба, видео

Регистрация Запомнить меня
Войти через:  Facebook Google Twitter Vk Yandex Mail.ru

The Maine - Identify - аккорды и текст, таба, видео

Печатать
Просмотров: 122
Identify
The Maine
Please follow the tabbed chords below, I can't identify the name of the chords. Not 100% 
sure if its right. Enjoy!

Identify by The Maine

Dsus2: x00230
Asus4: x02230
Em: 022033
G: 3x0033 or 320033
Asus2: x02130


Intro:
E|--------------------------------------------------|
B|--------5-----------5-----------5-----------5-----|
G|-----7-----7-----7-----7-----7-----7-----7-----7--|
D|--7-----------6-----------5-----------5-----------|
A|--------------------------------------------------|
E|--------------------------------------------------|

Some things are out of my hands
I'm what time and consequence have made me
Sit back and watch the world explode
3, 2, 1 here come the fireworks baby

Asus4 - Dsus2 - G(Riff 1)

Use this after the "G Chord":
Riff 1:
E|-------------|
B|-------------|
G|-------------|
D|----------0--|
A|-----0h2-----|
E|--3----------|


Asus4 - Asus2 - G:
Sometimes you can feel so smart
Just like a ghost in school clothes
But my days are the mostly hazy
3, 2, 1 here comes the hurricane baby


CHORUS:

Asus4 - Dsus2 - G:
Yeeaaah identify,Identify
(If I am not a man, what am I then?)
Yeaaah identify,Identify
(My head, my hands are all I really have

Em - G:
Don't stand in line, identify


Asus4 - Dsus2 - G(Riff 1)


E|-------10-------10-------|
B|----10-------10----10----|
G|-11-------12----------12-|
D|-------------------------|
A|-------------------------|
E|-------------------------|

Yeeaaah, I bought the last plane ticket to the end of the world
Who ever says that the good die young?
All the boys are alive
All the boys are with girls
Time to give them what they're waiting for

If the drugs don't work then you probably need more
If the drugs don't work then you probably need more

E|--------------------------------------------------|
B|--------5-----------5-----------5-----------5-----|
G|-----7-----7-----7-----7-----7-----7-----7-----7--|  (Strum at the end)
D|--7-----------6-----------5-----------5-----------|
A|--------------------------------------------------|
E|--------------------------------------------------|

Time to give them what they're waiting for

Asus4 - Dsus2 - G:
Yeaaah identify, identify
(I'm the 88 snake that you love to hate)
Yeaaah identify, identify
(My tongue, my teeth are what you're gonna taste)
Don't stand in line

Em - G:
No don't stand in line identify, identify


Outro:

Asus4 - Dsus2 - G(Riff 1)
Some things are out of my hands....
Добавлено: 24.08.2013
Другие материалы по этой песне:
  • Аккорды и текст

Страница создана 11.06.2012
http://primanota.ru/the-maine/identify-chords.htm
Привет, Гость.
Предлагаем пройти революционный курс по гитаре.
Подарок от PrimaNota.Ru, забирай!