PrimaNota.ru - самый крупный в мире бесплатный архив песенных текстов, аккордов, табулатур и нот


The Maine - Fucked Up Kids - таба, видео

Регистрация Запомнить меня
Войти через:  Facebook Google Twitter Vk Yandex Mail.ru

The Maine - Fucked Up Kids - таба, видео

Печатать
Просмотров: 62
TITLE: F*cked Up Kids
ARTIST: The Maine
TUNING: Standard



   A
There's a crowd inside, free in spirit

Nothing dazzling in appearance

We do the best with, with what we have

No no no

We aren't models, we aren't actors

We are those who sit up in the rafters

After all that's where you'll find the action.

|-------------------------------------|
|-------------------------------------|
|-7-7-7-------9-----------------------|
|-7-7-7-7-7-9-9-----------------------|
|-5-5-4-7-7-9-7-----------------------|
|-------5-5-7-------------------------|

   A            C#
We're searching for something
   D        F#         E
Just trying to make it happen
   A      C#
We listen to no one
   D  C#  F#          A   E
Don't forget we won't forgive
  D                E   A           B   E
They'll write a story of the lives we lived

|----------------------------------------------|
|----10-9---------------10-9------10-9---------|
|-----------------9----------------------------|
|-11------11-9-11----11--------11------9--7----|
|----------------------------------------------|
|----------------------------------------------|

Fucked up kids

|-------------------------------------|
|----10-9-----------------------------|
|-------------------------------------|
|-11------11-9-11--9-7-11-------------|
|-------------------------------------|
|-------------------------------------|


  F#                         D
There's a place for you and all my friends
          A
When the sun falls down 
      E
A new day begins
  F#                D            A-E
Where's feeling good is good enough
  F#                   D
Take a left on College Avenue
    A                           E
And call your friends they can all come too
   F#                        D
They'll write a story of the lives we lived
A   E
Me, you


   A            C#
We're searching for something
   D        F#         E
Just trying to make it happen
   A      C#
We listen to no one
   D  C#  F#          A   E
Don't forget we won't forgive
  D                E   A           B   E
They'll write a story of the lives we lived

|----------------------------------------------|
|----10-9---------------10-9------10-9---------|
|-----------------9----------------------------|
|-11------11-9-11----11--------11------9--7----|
|----------------------------------------------|
|----------------------------------------------|

Fucked up kids

|-------------------------------------|
|----10-9-----------------------------|
|-------------------------------------|
|-11------11-9-11--9-7-11-------------|
|-------------------------------------|
|-------------------------------------|

                **SOLO**

|-------------------------------------|
|-------------------------------------|
|-16-18--etc-with-wah-pedal-----------|
|-------------------------------------|
|-------------------------------------|
|-------------------------------------|

     A                  C#
I am alone, but I'm not lonely
F#              E
No it's nothing personal
   D                  C#    B
I prefer to do things on my own
    A                  C#
And even though nobody knows it
F#         A
No I'm not lonely
F#       E        B
No, I'm raw and invincible.
Добавлено: 20.01.2014
Другие материалы по этой песне:
  • Аккорды и текст

Страница создана 20.01.2014
http://primanota.ru/the-maine/fucked-up-kids-chords.htm
Привет, Гость.
Предлагаем пройти революционный курс по гитаре.
Подарок от PrimaNota.Ru, забирай!