PrimaNota.ru - самый крупный в мире бесплатный архив песенных текстов, аккордов, табулатур и нот


The Maine - Bliss - таба, видео

Регистрация Запомнить меня
Войти через:  Facebook Google Twitter Vk Yandex Mail.ru

The Maine - Bliss - таба, видео

Печатать
Просмотров: 148
-------------------------------------------------------------------------------
                             BLISS - The Maine
-------------------------------------------------------------------------------
Tabbed by: Matthew Florio; http://www.facebook.com/smeeplayscheap
E-mail: shempashland@yahoo.com

Tuning: Standard w Capo on 3rd Fret

Intro / Verses
e|-----------------------------------------------------------------|
B|----------------------------------------------0------------------|
G|-----------------------------------------------------------------|
D|-------4------4------7--7-------4------4----7--7-----------------|
A|-----5--5---5--5---5--5-----5--5---5--5---5----------------------|
E|---2------3------5--------2------3------5------------------------|

Pre Chorus
e|--------------------------------------------|
B|--------------------------------------------|
G|--------------------------------------------|
D|---44-444b-44-444/--------------------------|
A|---55-555b-55-555/--------------------------|
E|---33-333b-33-333/--------------------------|

Chorus
e|---00000000-00000000-00000000-00000000------|
B|---33333333-33333333-33333333-33333333------|
G|---22222222-00000000-22222222-22222222------|
D|---00000000-xxxxxxxx-00000000-00000000------|
A|------------22222222-22222222-xxxxxxxx------|
E|------------00000000----------33333333------|

e|---------------------------------------------------------|
B|------7-------7-------7-------0--------------------------|
G|------7-------6-------6-------4b-------------------------|
D|--------0-------0-------0-----0--44-444b-44-444/---------|
A|---------------------------------55-555b-55-555/---------|
E|---7-------6-------5-------3-----33-333b-33-333/---------|

Solo
e|--------------------------------------------------------------------------------------------0~----|
B|--------------------------------------------------------------------------------------------0~----|
G|--222---444p2h44--------222----44422-------------------------------------00~0000~-222----4442b----|
D|-----4444-------44444444---4444-------------------991112------44----5544-44~4444b----4444---------|
A|------------------------------------55779910101212------445577--7755------------------------------|
E|--------------------------------------------------------------------------------------------------|

Chorus
e|---00000000-00000000-00000000-00000000------|
B|---33333333-33333333-33333333-33333333------|
G|---22222222-00000000-22222222-22222222------|
D|---00000000-xxxxxxxx-00000000-00000000------|
A|------------22222222-22222222-xxxxxxxx------|
E|------------00000000----------33333333------|

e|---00000000-00000000-00000000-00000000------|
B|---33333333-33333333-33333333-33333333------|
G|---22222222-00000000-22222222-22222222------|
D|---00000000-xxxxxxxx-00000000-00000000------|
A|------------22222222-22222222-xxxxxxxx------|
E|------------00000000----------33333333------|

e|---------------------------------------------------------|
B|------7-------7-------7-------0--------------------------|
G|------7-------6-------6-------4b-------------------------|
D|--------0-------0-------0-----0--44-444b-44-444/---------|
A|---------------------------------55-555b-55-555/---------|
E|---7-------6-------5-------3-----33-333b-33-333/---------|



************************************

| /   slide up
| \   slide down
| h   hammer-on
| p   pull-off
| ~   vibrato
| +   harmonic
| x   Mute note
| b   Bend
| pb  Pre-bend
| br  Bend release
| pbr Pre-bend release
| brb Bend release bend

************************************
Добавлено: 13.06.2015
Другие материалы по этой песне:
  • Аккорды и текст

Страница создана 13.06.2015
http://primanota.ru/the-maine/bliss-chords.htm
Привет, Гость.
Предлагаем пройти революционный курс по гитаре.
Подарок от PrimaNota.Ru, забирай!