PrimaNota.ru - самый крупный в мире бесплатный архив песенных текстов, аккордов, табулатур и нот


The Maine - American Candy (album) - таба, видео

Регистрация Запомнить меня
Войти через:  Facebook Google Twitter Vk Yandex Mail.ru

The Maine - American Candy (album) - таба, видео

Печатать
Просмотров: 107
I tabbed these songs separately and realized that I tabbed the whole album!
Here is a tab for the entire album.
If you need any assistance feel free to contact me.
Enjoy!


AMERICAN CANDY 
The Maine

-------------------------------------------------------------------
1) MILES AWAY


Artist: The Maine
Song: Miles Away
Album: American Candy
Tabbed by: Matthew Florio; http://www.facebook.com/smeeplayscheap
E-mail: shempashland@yahoo.com

Tuning: Standard w/ Capo 2nd Fret

Chords:
E 022100
B X24400
A X02200 OR X02220
Amaj X02100
Bmaj X21400
C#m X46600


Intro/Verse

     E    C#m  B    A                           
e|---0~---0~---0~---0~-----------------------|
B|---9~---5~---4~---2~-----------------------|
G|---9~---6~---4~---2~-----------------------|
D|-------------------------------------------| (x3)
A|-------------------------------------------|
E|-------------------------------------------|

then this before the Chorus

     E    C#m  B    B                           
e|---0~---0~---0~---0~-----------------------|
B|---9~---5~---4~---4~-----------------------|
G|---9~---6~---4~---4~-----------------------|
D|-------------------------------------------|
A|-------------------------------------------|
E|-------------------------------------------|


Chorus
     A   E   B   C#m  A   E   B   Bmaj  
e|---0-0-0-0-0-0-0-0--0-0-0-0-0-0-0~---------|
B|---0-0-0-0-0-0-0-0--0-0-0-0-0-0-0~---------|
G|---2-2-1-1-4-4-6-6--2-2-1-1-4-4-4~---------|
D|---2-2-2-2-4-4-6-6--2-2-2-2-4-4-1~---------|
A|---0-0-2-2-2-2-4-4--0-0-2-2-2-2-2~---------|
E|-------0-0--------------0-0-----0~---------|

Lead Riff
e|-------------------------------------------|
B|----------------------------------0~-------|
G|------------------------------1---1b-------|
D|--------------------------------2----------|
A|----------------------------0--------------|
E|-------------------------------------------|
"and easy, peaceful..."

     A   E   B   C#m  Amaj  B 
e|---0-0-0-0-0-0-0-0--0-0-0-0----------------|
B|---0-0-0-0-0-0-0-0--0-0-0-0----------------|
G|---2-2-1-1-4-4-6-6--1-1-4-4----------------|
D|---2-2-2-2-4-4-6-6--2-2-4-4----------------|
A|---0-0-2-2-2-2-4-4--0-0-2-2----------------|
E|-------0-0---------------------------------|


Lead Riff
e|------------------------------------|
B|---0~--0~-----0~--0~----------------|
G|---1b--1b-----1b--1b----------------|
D|----------2h4-----------------------|
A|------------------------------------|
E|------------------------------------|
" ...I am miles, miles away"


Verse
     E    C#m  B    A                           
e|---0~---0~---0~---0~-----------------------|
B|---9~---5~---4~---2~-----------------------|
G|---9~---6~---4~---2~-----------------------|
D|-------------------------------------------| 
A|-------------------------------------------|
E|-------------------------------------------|

then this before the Chorus

     E    C#m  B    B                           
e|---0~---0~---0~---0~-----------------------|
B|---9~---5~---4~---4~-----------------------|
G|---9~---6~---4~---4~-----------------------|
D|-------------------------------------------|
A|-------------------------------------------|
E|-------------------------------------------|


Lead Riffs
e|------------------|--------------|--------------|-------------|
B|---7h9~-9~-7~-----|---0~--0~--0~-|--0~--0~--0~--|--000/0~-----|
G|-------------9~---|---9~--8~--4~-|--9~--6~--4~--|--888/9~-----|
D|------------------|--------------|--------------|-------------|
A|------------------|--------------|--------------|-------------|
E|------------------|--------------|--------------|-------------|
"smoking w strangers... lights on... to the angels... X song..."


Chorus
     A   E   B   C#m  A   E   B   Bmaj  
e|---0-0-0-0-0-0-0-0--0-0-0-0-0-0-0~---------|
B|---0-0-0-0-0-0-0-0--0-0-0-0-0-0-0~---------|
G|---2-2-1-1-4-4-6-6--2-2-1-1-4-4-4~---------|
D|---2-2-2-2-4-4-6-6--2-2-2-2-4-4-1~---------|
A|---0-0-2-2-2-2-4-4--0-0-2-2-2-2-2~---------|
E|-------0-0--------------0-0-----0~---------|


Lead Riff
e|-------------------------------------------|
B|----------------------------------0~-------|
G|------------------------------1---1b-------|
D|--------------------------------2----------|
A|----------------------------0--------------|
E|-------------------------------------------|
"and easy, peaceful..."

     A   E   B   C#m  Amaj  B 
e|---0-0-0-0-0-0-0-0--0-0-0-0----------------|
B|---0-0-0-0-0-0-0-0--0-0-0-0----------------|
G|---2-2-1-1-4-4-6-6--1-1-4-4----------------|
D|---2-2-2-2-4-4-6-6--2-2-4-4----------------|
A|---0-0-2-2-2-2-4-4--0-0-2-2----------------|
E|-------0-0---------------------------------|


Lead Riff
e|------------------------------------|
B|---0~--0~-----0~--0~----------------|
G|---1b--1b-----1b--1b----------------|
D|----------2h4-----------------------|
A|------------------------------------|
E|------------------------------------|
" ...I am miles, miles away"

Bridge
e|---0-0-0-0-0-0-0-0-0-0-0-0--0-0-0-0-0-0-0-0-0-0-0-0-----------|
B|---0-0-0-0-0-0-0-0-0-0-0-0--0-0-0-0-0-0-0-0-0-0-0-0-----------|
G|---2-2-2-2-1-1-1-1-4-4-4-4--2-2-2-2-1-1-1-1-4-4-4-4-----------|
D|---2-2-2-2-2-2-2-2-4-4-4-4--2-2-2-2-2-2-2-2-4-4-4-1-----------|
A|---0-0-0-0-2-2-2-2-2-2-2-2--0-0-0-0-2-2-2-2-2-2-2-2-----------|
E|-----------0-0-0-0------------------0-0-0-0-------------------|

[02:12 - 02:23]
e|---0-0-0-0-0-0-0-0-0-0-0-0-0-0-0-0--0-0-0-0-0-0-0-0-0-0-0-0---|
B|---0-0-0-0-0-0-0-0-0-0-0-0-0-0-0-0--0-0-0-0-0-0-0-0-0-0-0-0---|
G|---2-2-2-2-1-1-1-1-4-4-4-4-6-6-6-6--2-2-2-2-1-1-1-1-4-4-4-4---|
D|---2-2-2-2-2-2-2-2-4-4-4-4-6-6-6-6--2-2-2-2-2-2-2-2-4-4-4-4---|
A|---0-0-0-0-2-2-2-2-2-2-2-2-4-4-4-4--0-0-0-0-2-2-2-2-2-2-2-2---|
E|-----------0-0-0-0--------------------------0-0-0-0-----------|
"MILES AWAY..."


Lead
[2:00]
e|--------------------------------------------------------------|
B|--------------------------------------------------------------|
G|---6-4--------6-4-----------------6-4-------------------------|
D|------7-6~-------7-6~--4h6p4h6p4-----7-6~--6h9\4~----7-7p6~---|
A|----------7---------------------7------------------/7---------|
E|--------------------------------------------------------------|

[02:18] 
e|-------------------------------------------|
B|-------------------------------------------|
G|---6-4-------------------------------------|
D|------7-6~--6h7\4~-5b*---------------------|
A|-------------------------------------------|
E|-------------------------------------------|
NOTE: *bend note enough that it sounds a 1/2 step above 
(ie:5th fret bend fully to sound like 6th fret then slowly release bend to sound like 5th fret again)

Interlude
e|---0~---0~---0~---0~---0~---0~-------------|
B|---5~---2~---4~---5~---2~---4~-------------|
G|---6~---2~---4~---6~---2~---4~-------------|
D|----~--------------------------------------|
A|----~--------------------------------------|
E|-------------------------------------------|
"when the buzz..."

Lead
e|------------------------------------------------------------|
B|-----------------------------------5------5----5------------|
G|----1b~------4p1b~---4p1b~----------4------4----4-----1-1b--|
D|---2---4~---2-------2-----4~---6-7---6~-6~--6-6~-6~--2------|
A|------------------------------------------------------------|
E|------------------------------------------------------------|
    [2:35]    [2:38]  [2:43]    [2:48]

   
Chorus 
     A   E   B   C#m  A   E   B   Bmaj  
e|---0-0-0-0-0-0-0-0--0-0-0-0-0-0-0~---------|
B|---0-0-0-0-0-0-0-0--0-0-0-0-0-0-0~---------|
G|---2-2-1-1-4-4-6-6--2-2-1-1-4-4-4~---------|
D|---2-2-2-2-4-4-6-6--2-2-2-2-4-4-1~---------|
A|---0-0-2-2-2-2-4-4--0-0-2-2-2-2-2~---------|
E|-------0-0--------------0-0-----0~---------|


Lead Riff
e|-------------------------------------------|
B|----------------------------------0~-------|
G|------------------------------1---1b-------|
D|--------------------------------2----------|
A|----------------------------0--------------|
E|-------------------------------------------|
"and easy, peaceful..."

     A   E   B   C#m  Amaj  B 
e|---0-0-0-0-0-0-0-0--0-0-0-0----------------|
B|---0-0-0-0-0-0-0-0--0-0-0-0----------------|
G|---2-2-1-1-4-4-6-6--1-1-4-4----------------|
D|---2-2-2-2-4-4-6-6--2-2-4-4----------------|
A|---0-0-2-2-2-2-4-4--0-0-2-2----------------|
E|-------0-0---------------------------------|


Lead Riff
e|------------------------------------|
B|---0~--0~-----0~--0~----------------|
G|---1b--1b-----1b--1b----------------|
D|----------2h4-----------------------|
A|------------------------------------|
E|------------------------------------|
" ...I am miles, miles away"


Outro
     A   E   B   C#m  Amaj  B 
e|---0-0-0-0-0-0-0-0--0-0-0-0----------------|
B|---0-0-0-0-0-0-0-0--0-0-0-0----------------|
G|---2-2-1-1-4-4-6-6--1-1-4-4----------------|
D|---2-2-2-2-4-4-6-6--2-2-4-4----------------|
A|---0-0-2-2-2-2-4-4--0-0-2-2----------------|
E|-------0-0---------------------------------|

Lead Riff
e|------------------------------------|
B|---0~--0~-----0~--0~---0-0-0-0~-----|
G|---1b--1b-----1b--1b---1h2-2p1~-----|
D|----------2h4-----------------------|
A|------------------------------------|
E|------------------------------------|
" ...I am miles, miles away"


************************************

2) Same Suit, Different Tie

Artist: The Maine
Song: Same Suit, Different Tie
Album: American Candy
Tabbed by: Matthew Florio; facebook.com/smeeplayscheap
E-mail: shempashland@yahoo.com

Tuning: Standard

Intro

Guitar 1
Slight Palm Mute
e|-----------------------------------------------------------|
B|-----17----15-----17----15-----17----15--------------------|
G|---17---17------17---17------17---17-----------------------|
D|-----------------------------------------------------------|
A|-----------------------------------------------------------|
E|-----------------------------------------------------------|

Guitar 2
     F
e|---0~------------------------0~----------------------------|
B|---1~------------------------1~--5-8-----------------------|
G|---0~------------------------0~------5~--------------------|
D|---3~------------------------3~----------------------------|
A|---3~------------------------3~----------------------------|
E|-----------------------------------------------------------|

Verse

Guitar 1
e|-----------------------------------------------------------|
B|-----17----15-----17----15-----17----15--------------------|
G|---17---17------17---17------17---17-----------------------|
D|-----------------------------------------------------------|
A|-----------------------------------------------------------|
E|-----------------------------------------------------------|

*NO GUITAR 2 AT FIRST... BUT YOU CAN FOLLOW THE BASS ROOT NOTES*
Guitar 2 comes in when John sings "I feel so fresh..." Palm Mute the chords at that point.

Guitar 2
     G      Am     F     F
e|---0-0-0--0-0-0--0-0-0-0-0-0-------------------------------|
B|---1-1-1--1-1-1--1-1-1-1-1-1-------------------------------|
G|---0-0-0--2-2-2--0-0-0-0-0-0-------------------------------|
D|---0-0-0--2-2-2--3-3-3-3-3-3-------------------------------|
A|---2-2-2--0-0-0--3-3-3-3-3-3-------------------------------|
E|---3-3-3---------------------------------------------------|

or as Power Chords

e|-----------------------------------------------------------|
B|-----------------------------------------------------------|
G|-----------------------------------------------------------|
D|---5-5-5--7-7-7--3-3-3-3-3-3-------------------------------|
A|---5-5-5--7-7-7--3-3-3-3-3-3-------------------------------|
E|---3-3-3--5-5-5--1-1-1-1-1-1-------------------------------|

e|-----------------------------------------------------------|
B|-----------------------------------------------------------|
G|------------------------5-5-5------------------------------|
D|---5-5-5--7-7-7--3-3-3--5-5-5------------------------------|
A|---5-5-5--7-7-7--3-3-3--3-3-3------------------------------|
E|---3-3-3--5-5-5--1-1-1-------------------------------------|
Palm Muted
"I feel so fresh..."

End on G chord at end of Verse when John sings "Miserable youth..."

Chorus

Guitar 1
e|--------------------------------------------------------|
B|----5--5--3--3--5--5--6--6---5-----3--3---6--6----------|
G|--55-55-55-55-55-55-55-55--55-55-55-55--55-55-----------|
D|--------------------------------------------------------|
A|--------------------------------------------------------|
E|--------------------------------------------------------|

e|--------------------------------------------------------|
B|--1212121212121212--15-15-15-15-15-15-15-15-------------|
G|---x-x-x-x-x-x-x-x---x--x--x--x--x--x--x--x-------------|
D|---9-9-9-9-9-9-9-9--12-12-12-12-12-12-12-12-------------|
A|--------------------------------------------------------|
E|--------------------------------------------------------|

Guitar 2
     C       G       Am      F
e|------------------------------------------------------------------------------------------------|
B|-----------------------------------------------------------------------------------------------|
G|-5-5-5-5--------------------------5-5-5-5------------------------------------------------------|
D|-5-5-5-5-5-5-5-5-7-7-7-7-3-3-3-3--5-5-5-5-5-5-5-5-7-7-7-7-3-3-3-3--5-5-5-5-5-5-333333333333333-|
A|-3-3-3-3-5-5-5-5-7-7-7-7-3-3-3-3--3-3-3-3-5-5-5-5-7-7-7-7-3-3-3-3--5-5-5-5-5-5-333333333333333-|
E|---------3-3-3-3-5-5-5-5-1-1-1-1----------3-3-3-3-5-5-5-5-1-1-1-1--3-3-3-3-3-3-111111111111111-|
"All dressed up..."

Intro

Verses

Chorus

Bridge

Guitar 1
e|--------------------------------------------------------|
B|---13-13-13-13-13-13-13-13--12-12-12-12--15-15-15-15----|
G|----x--x--x--x--x--x--x--x---x--x--x--x---x--x--x--x----|
D|---10-10-10-10-10-10-10-10---9--9--9--9--12-12-12-12----|
A|--------------------------------------------------------|
E|--------------------------------------------------------|

Guitar 2
     Am       F        G        B/G
e|--------------------------------------------------------|
B|--------------------------------------------------------|
G|------------------------------4-4-4-4-------------------|
D|---7-7-7-7--3-3-3-3--5-5-5-5--5-5-5-5-------------------|
A|---7-7-7-7--3-3-3-3--5-5-5-5--2-2-2-2-------------------|
E|---5-5-5-5--1-1-1-1--3-3-3-3----------------------------|
"You don't need much of anything..."

Guitar 2 Before Final Chorus:
e|--------------------------------------------------------|
B|--------------------------------------------------------|
G|--------------------------------------------------------|
D|---7-7-7-7--3-3-3-3--5-5-55-5-5-5-----------------------|
A|---7-7-7-7--3-3-3-3--5-5-55-5-5-5-----------------------|
E|---5-5-5-5--1-1-1-1--3-3-33-3-3-3-----------------------|

Chorus

Outro

Guitar 1
e|-----------------------------------------------------------|
B|-----17----15-----17----15-----17----15--------------------|
G|---17---17------17---17------17---17-----------------------|
D|-----------------------------------------------------------|
A|-----------------------------------------------------------|
E|-----------------------------------------------------------|

Guitar 2
     G      Am     F     F
e|---0-0-0--0-0-0--0-0-0-0-0-0-------------------------------|
B|---1-1-1--1-1-1--1-1-1-1-1-1-------------------------------|
G|---0-0-0--2-2-2--0-0-0-0-0-0-------------------------------|
D|---0-0-0--2-2-2--3-3-3-3-3-3-------------------------------|
A|---2-2-2--0-0-0--3-3-3-3-3-3-------------------------------|
E|---3-3-3---------------------------------------------------|

Guitar 3
e|--------------------------------------------|
B|--------------------------------------------|
G|--------------------------------------------|
D|---151515-14--12--12h14---------------------|
A|------------15--15-----12-------------------|
E|-------------------------15-----------------|


************************************

3) MY HAIR

Artist: The Maine
Song: My Hair
Album: American Candy
Tabbed by: Matthew Florio; facebook.com/smeeplayscheap
Email: shempashland@yahoo.com

Standard Tuning 

Guitar 1 - Lead     (Pat)
Guitar 2 - Rhythm   (Kennedy)
Guitar 3 - Acoustic (John)

Chords (John):
C  x32010
Am x02210
Dm xx0321
Em 022000
F  x33010
G  320010

Intro

Guitar 1 
E|------------------------|
B|-------13------12--12---|
G|---12----12--12--12-----|
D|-10--10----10-----------|
A|------------------------|
E|------------------------|


Guitar 2
     C         C         C         C  
E|-----------------------------------------|
B|-----------------------------------------|
G|---5-5-5-5---5-5-5-5---5-5-5-5---5-5-5-5-|
D|---5-5-5-5---5-5-5-5---5-5-5-5---5-5-5-5-|
A|---3-3-3-3---3-3-3-3---3-3-3-3---3-3-3-3-|
E|-----------------------------------------|


Verse

Guitar 2
     C    Dm   Am   Dm   Em   F
E|-----------------------------------|
B|-----------------------------------|
G|---5555-7777------7777-------------|
D|---5555-7777-7777-7777-2222-3333---|
A|---3333-5555-7777-5555-2222-3333---|
E|-------------5555------0000-1111---|
"My hair is tired and its falling out..."


     C    Dm   Am   Dm   Em   F
E|-----------------------------------|
B|-----------------------------------|
G|---5555-7777------7777-------------|
D|---5555-7777-7777-7777-2222-3333---|
A|---3333-5555-7777-5555-2222-3333---|
E|-------------5555------0000-1111---|

Chorus
Guitar 2
     C    Dm   Am   C    F    G
E|-----------------------------------|
B|-----------------------------------|
G|---5555-7777------5555-------------|
D|---5555-7777-7777-5555-3333-5555---|
A|---3333-5555-7777-3333-3333-5555---|
E|-------------5555------1111-3333---|
"Grow your hair out, let it all down..."


Guitar 2
     C    Dm   Am   C    F    G
E|-----------------------------------|
B|-----------------------------------|
G|---5555-7777------5555-------------|
D|---5555-7777-7777-5555-3333-5555---|
A|---3333-5555-7777-3333-3333-5555---|
E|-------------5555------1111-3333---|


C (like the intro)

Lead riff
E|------------------------|
B|-------13------12--12---|
G|---12----12--12--12-----|
D|-10--10----10-----------|
A|------------------------|
E|------------------------|

Guitar 2
     C         C         C         C  
E|-----------------------------------------|
B|-----------------------------------------|
G|---5-5-5-5---5-5-5-5---5-5-5-5---5-5-5-5-|
D|---5-5-5-5---5-5-5-5---5-5-5-5---5-5-5-5-|
A|---3-3-3-3---3-3-3-3---3-3-3-3---3-3-3-3-|
E|-----------------------------------------|

Verse

Guitar 2
     C    Dm   Am   Dm   Em   F
E|-----------------------------------|
B|-----------------------------------|
G|---5555-7777------7777-------------|
D|---5555-7777-7777-7777-2222-3333---|
A|---3333-5555-7777-5555-2222-3333---|
E|-------------5555------0000-1111---|


     C    Dm   Am   Dm   Em   F
E|-----------------------------------|
B|-----------------------------------|
G|---5555-7777------7777-------------|
D|---5555-7777-7777-7777-2222-3333---|
A|---3333-5555-7777-5555-2222-3333---|
E|-------------5555------0000-1111---|

Chorus

Guitar 2
     C    Dm   Am   C    F    G
E|-----------------------------------|
B|-----------------------------------|
G|---5555-7777------5555-------------|
D|---5555-7777-7777-5555-3333-5555---|
A|---3333-5555-7777-3333-3333-5555---|
E|-------------5555------1111-3333---|

Guitar 2
     C    Dm   Am   C    F    G
E|-----------------------------------|
B|-----------------------------------|
G|---5555-7777------5555-------------|
D|---5555-7777-7777-5555-3333-5555---|
A|---3333-5555-7777-3333-3333-5555---|
E|-------------5555------1111-3333---|


Bridge

Guitar 2
    F     G     C     F    G     C
E|--------------------------------------|
B|--------------------------------------|
G|--------------5555-------------5555---|
D|---3333-5555--5555--3333-5555--5555---|
A|---3333-5555--3333--3333-5555--3333---|
E|---1111-3333--------1111-3333---------|
"Nobody's gonna tell me how to wear my hair..."

     F    G     C     Am   F    G 
E|--------------------------------------|
B|--------------------------------------|
G|--------------5555--------------------|
D|---3333-5555--5555--7777-3333-5555----|
A|---3333-5555--3333--7777-3333-5555----|
E|---1111-3333--------5555-1111-3333----|
"See I don't care if you all care..."


Interlude

Guitar 2 
     C    Dm   Am 
E|------------------------|
B|------------------------|
G|---5~---7~--------------|
D|---5~---7~---7~---------|
A|---3~---5~---7~---------|
E|-------------5~---------|


Chorus
Guitar 2
     C    Dm   Am   C    F    G
E|-----------------------------------|
B|-----------------------------------|
G|---5555-7777------5555-------------|
D|---5555-7777-7777-5555-3333-5555---|
A|---3333-5555-7777-3333-3333-5555---|
E|-------------5555------1111-3333---|

Guitar 2
     C    Dm   Am   C    F    G
E|-----------------------------------|
B|-----------------------------------|
G|---5555-7777------5555-------------|
D|---5555-7777-7777-5555-3333-5555---|
A|---3333-5555-7777-3333-3333-5555---|
E|-------------5555------1111-3333---|


Outro

Guitar 2
     C    Dm   Am   C    F    G
E|-----------------------------------|
B|-----------------------------------|
G|---5555-7777------5555-------------|
D|---5555-7777-7777-5555-3333-5555---|
A|---3333-5555-7777-3333-3333-5555---|
E|-------------5555------1111-3333---|

Guitar 2
     C    Dm   Am   C    F    G
E|-----------------------------------|
B|-----------------------------------|
G|---5555-7777------5555-------------|
D|---5555-7777-7777-5555-3333-5555---|
A|---3333-5555-7777-3333-3333-5555---|
E|-------------5555------1111-3333---|

*************************************

4) ENGLISH GIRLS

Artist: The Maine
Song: English Girls
Album: American Candy
Tabbed by: Matthew Florio; http://www.facebook.com/smeeplayscheap
E-mail: Shempashland@yahoo.com

Tuning: Standard

Intro
     F       C       G       Am
e|---0-0-0---0-0-0---0-0-0---0-0---0-0-0---0-0-0---0-0-0---0-0-0-------------|
B|---1-1-1---1-1-1---1-1-1---1-1---1-1-1---1-1-1---1-1-1---1-1-1-------------|
G|---0-0-0---0-0-0---0-0-0---2-0---0-0-0---0-0-0---0-0-0---0-0-0-------------|
D|---3-3-3---2-2-2---0-0-0---2-0---3-3-3---2-2-2---0-0-0---0-0-0-------------|
A|---3-3-3---3-3-3---2-2-2---0-2---3-3-3---3-3-3---2-2-2---2-2-2-------------|
E|-------------------3-3-3-----3-------------------3-3-3---3-3-3-------------|

Lead 
*play w a Slide
e|------------------------------------|
B|------------------------------------|
G|---4/5/12~-14\9--4/5/12~-14\9\7\9---|
D|------------------------------------|
A|------------------------------------|
E|------------------------------------|


Verse
*no guitar part hear but here are the chords that are rooted to the melody

e|---------0-------------0---------0----------------0---------------0--------|
B|---------1-------------1---------1----------------1---------------1--------|
G|---------0-------------0---------0----------------2---------------0--------|
D|---------3-------------0---------3----------------2---------------0--------|
A|---------3-------------2---------3----------------0---------------2--------|
E|-----------------------3------------------------------------------3--------|
"girls are crying on the corner... boys all left... had too much... drink."


e|----------0-0-------------|
B|----------1-1-------------|
G|----------0-0-------------|
D|----------0-0-------------|
A|----------2-2-------------|
E|----------3-3-------------|
"left me in disbelief."

Chorus
*is the same as Intro

Verse 2
*same chord structure

Lead 
*light palm mute w/ Delay
e|---------------------------------------------------------------------------|
B|-----------13-12~----------------------------------------------------------|
G|---------9-----------------------------------------------------------------|
D|---10-12-------------12/10p9~----7--7--9---7--7--9--7--7--9--------9-------|
A|-------------------------------10-10-10--10-10-10-10-10-10--9-10-12--------|
E|---------------------------------------------------------------------------|
"I can tell he's pouring honey... pins her against the wall..."

Chorus

Bridge
e|---0---0---0-0--0-0--0-------|
B|---1---1---1-1--1-1--1-------|
G|---2---0---0-0--0-0--0-------|
D|---2---0---3-3--3-3--3-------|
A|---0---2---3-3--3-3--3-------|
E|-------3---------------------|
"that boy he is a drifter..."

Lead
*played w/ a Slide
e|------------------------------|
B|------------------------------|
G|---4-5/12-14\9--4-5/12-14\9---|
D|------------------------------|
A|------------------------------|
E|------------------------------|


Second part of Verse 2
"Pins her against the way..."


Chorus till end.


************************************

5) 24 FLOORS

Artist: The Maine
Song: 24 Floors
Album: American Candy
Tabbed by: Matthew Florio; http://www.facebook.com/smeeplayscheap
E-mail: shempashland@yahoo.com


Tuning: Standard

Chords:
F  x33010
Am x02210
G  320010
C  x32010


Intro / Verses

Guitar 1
     F                Am               G
e|---0-0-0-0-0-0-0-0--0-0-0-0-0-0-0-0--0-0-0-0-0-0-0-0-----------------------|
B|---1-1-1-1-1-1-1-1--1-1-1-1-1-1-1-1--1-1-1-1-1-1-1-1-----------------------|
G|---0-0-0-0-0-0-0-0--2-2-2-2-2-2-2-2--0-0-0-0-0-0-0-0-----------------------|
D|---3-3-3-3-3-3-3-3--2-2-2-2-2-2-2-2--0-0-0-0-0-0-0-0-----------------------|
A|---3-3-3-3-3-3-3-3--0-0-0-0-0-0-0-0--2-2-2-2-2-2-2-2-----------------------|
E|-------------------------------------3-3-3-3-3-3-3-3-----------------------|
"24 Floors up in some hotel room..."

Guitar 2
e|---1~---------------5~---------------3~------------------------------------|
B|---1~---------------5~---------------3~------------------------------------|
G|---2~---------------5~---------------4~------------------------------------|
D|---3~---------------7~---------------5~------------------------------------|
A|---3~---------------7~---------------5~------------------------------------|
E|---1~---------------5~---------------3~------------------------------------|

Chorus

Guitar 1
     F        C        Am       G
e|---0-0-0-0--0-0-0-0--0-0-0-0--0-0-0-0--------------------------------------|
B|---1-1-1-1--1-1-1-1--1-1-1-1--1-1-1-1--------------------------------------|
G|---0-0-0-0--0-0-0-0--2-2-2-2--0-0-0-0--------------------------------------|
D|---3-3-3-3--2-2-2-2--2-2-2-2--0-0-0-0--------------------------------------|
A|---3-3-3-3--3-3-3-3--0-0-0-0--2-2-2-2--------------------------------------|
E|------------------------------3-3-3-3--------------------------------------|
"you don't wanna die tonight..."

Guitar 2
e|---1-1-1-1--3-3-3-3--5-5-5-5--3-3-3-3--------------------------------------|
B|---1-1-1-1--5-5-5-5--5-5-5-5--3-3-3-3--------------------------------------|
G|---2-2-2-2--5-5-5-5--5-5-5-5--4-4-4-4--------------------------------------|
D|---3-3-3-3--5-5-5-5--7-7-7-7--5-5-5-5--------------------------------------|
A|---3-3-3-3--3-3-3-3--7-7-7-7--5-5-5-5--------------------------------------|
E|---1-1-1-1-----------5-5-5-5--3-3-3-3--------------------------------------|




************************************

6) DIET SODA SOCIETY

Artist: The Maine
Song: Diet Soda Society
Album: American Candy
Tabbed by: Matthew Florio; facebook.com/smeeplayscheap
E-mail: Shempashland@yahoo.com

Tuning: Standard

Intro / Chorus
     G    Bm   Em              G    G/F  Em 
e|----------------------------------------------------------------|
B|----------------------------------------------------------------|
G|----------------------------------------------------------------|
D|--------4444----------------------------------------------------|
A|---5555-2222-2222-2h3p2h3p2--5555-5555-2222-2h3p2h3p2-----------|
E|---3333------0000------------3333-2222-0000---------------------|


Bm
Brain is a funny place"

G     Bm      Em
To be honest, I am full of shit
G          G/F             Em
But that's alright Because everyone else that I know is
G    Bm           Em
It's just a tough thing For us humans to admit
G    G/F                             Em
Yes, we all have the question but we don't know what the answer is
Bm
Oh, the brain is a funny place


Chorus

e|----------------------------------------------------------------|
B|----------------------------------------------------------------|
G|----------------------------------------------------------------|
D|--------4444----------------------------------------------------|
A|---5555-2222-2222-2h3p2h3p2--5555-5555-2222-2h3p2h3p2-----------|
E|---3333------0000------------3333-2222-0000---------------------|

Verse 

Chorus till End.

*******************************************

7) AM I PRETTY?

Artist: The Maine
Song: Am I Pretty?
Album: American Candy
Tabbed by: Matthew Florio; facebook.com/smeeplayscheap
E-mail: shempashland@yahoo.com

Tuning: Standard Capo 7th Fret

Intro / Verse

e|-----0----------0--000----------------|
B|-----0---5p4----0--000----------------|
G|------------4---4--444----------------|
D|---2---4--------2-2222----------------|
A|---4---2----------0000----------------|
E|--------------4-----------------------|

Lead Riff
*comes in half way through
e|---------------------------------------|
B|---------------------------------------|
G|---------------------------------------|
D|---22--222-2p1----22--222-2h4p2--------|
A|--------------2------------------------|
E|---------------0-----------------------|

Chorus

e|---00-0-0-00-0--00-00-0--00-0-0-00-0--0-0-0-0-0-0-0-0------------|
B|---00-0-0-00-0--00-00-0--00-0-0-00-0--5-5-5-5-0-0-0-0------------|
G|---22-1-1-44-4--22-11-4--22-1-1-44-4--4-4-4-4-4-4-4-4------------|
D|---22-2-2-22-2--22-22-4--22-2-2-22-2--2-2-2-2-4-4-4-4------------|
A|---00-2-2-xx-0--00-22-2--00-2-2-xx-0--0-0-0-0-2-2-2-2------------|
E|------0-0-44-------00-------0-0-44-------------------------------|
"Am I pretty? ...is there. It's such... make me up..."

e|---00-0-0-00-0--00-00-0000------------|
B|---00-0-0-00-0--00-00-0000------------|
G|---22-1-1-44-4--22-11-4444------------|
D|---22-2-2-22-2--22-22-4444------------|
A|---00-2-2-xx-0--00-22-2222------------|
E|------0-0-44-------00-----------------|
[0:49]

Verse

e|-----0----------0--000----------------|
B|-----0---5p4----0--000----------------|
G|------------4---4--444----------------|
D|---2---4--------2-2222----------------|
A|---4---2----------0000----------------|
E|--------------4-----------------------|

Lead Riff
*comes in half way through
e|---------------------------------------|
B|---------------------------------------|
G|---------------------------------------|
D|---22--222-2p1----22--222-2h4p2--------|
A|--------------2------------------------|
E|---------------0-----------------------|

Chorus

e|---00-0-0-00-0--00-00-0--00-0-0-00-0--0-0-0-0-0-0-0-0------------|
B|---00-0-0-00-0--00-00-0--00-0-0-00-0--5-5-5-5-0-0-0-0------------|
G|---22-1-1-44-4--22-11-4--22-1-1-44-4--4-4-4-4-4-4-4-4------------|
D|---22-2-2-22-2--22-22-4--22-2-2-22-2--2-2-2-2-4-4-4-4------------|
A|---00-2-2-xx-0--00-22-2--00-2-2-xx-0--0-0-0-0-2-2-2-2------------|
E|------0-0-44-------00-------0-0-44-------------------------------|
"Am I pretty? ...is there. It's such... make me up..."

e|---00-0-0-00-0--00-00-0000------------|
B|---00-0-0-00-0--00-00-0000------------|
G|---22-1-1-44-4--22-11-4444------------|
D|---22-2-2-22-2--22-22-4444------------|
A|---00-2-2-xx-0--00-22-2222------------|
E|------0-0-44-------00-----------------|

Bridge

Lead Riff
e|---------------------------------------|
B|---------------------------------------|
G|---------------------------------------|
D|---22--222-2p1----22--222-2h4p2--------|
A|--------------2------------------------|
E|---------------0-----------------------|

Guitar 2
e|---0~-----0~---------------------------|
B|---0~-----0~---------------------------|
G|---1~-----1~---------------------------|
D|---2~----------------------------------|
A|---2~----------------------------------|
E|---0~----------------------------------|
[01:54]

e|--------------0---------------0--------|
B|---0--0--0--4---0--0--0--0--4---0------|
G|----1--1--1---------1--1--1------------|
D|-----2--2--2---------2--2--2-----------|
A|---------------------------------------|
E|---------------------------------------|
[2:03]
"There's beautry..."

Chorus till end.


************************************

8) (UN)LOST

Artist: The Maine
Song: (Un)Lost
Album: American Candy
Tabbed by: Matthew Florio; facebook.com/smeeplayscheap
E-mail: shempashland@yahoo.com

Tuning: Standard w/ Capo 2nd Fret

Intro 
*Keyboard transcribed for Guitar
e|------------------------------------------------------|
B|-------10-9-10-------10-9-10-------10-9-10------------|
G|---7~------------7~------------7~---------------------|
D|------------------------------------------------------|
A|------------------------------------------------------|
E|------------------------------------------------------|

Verse

e|---0----0----0----0--------------------|
B|---0----3----0----0--------------------|
G|---2----2----2----1--------------------|
D|---2----0----2----2--------------------|
A|---0---------x----2--------------------|
E|-------------2----0--------------------|
"Im not looking for anything..."

Pre Chorus

e|---0~---0~---0~---0~-------------------|
B|---3~---2~---0~---0~-------------------|
G|---2~---2~---2~---1~-------------------|
D|---0~---2~---2~---2~-------------------|
A|--------0~---x~---2~-------------------|
E|-------------2~---0~-------------------|
"I need some space to run..."

Chorus

e|---00000000-00000000-00000000-00000000--|
B|---33333333-22222222-22222222-00000000--|
G|---22222222-22222222-22222222-11111111--|
D|---00000000-22222222-22222222-22222222--|
A|------------00000000-00000000-22222222--|
E|------------------------------00000000--|
"Im unaware of where Im going..."

Intro

Verse

Pre Chorus

Chorus

Intro

Chorus

Outro
*slight Palm Mute
e|------------------------------------|
B|------------------------------------|
G|--------22---------22--------22-----|
D|---22-22--22--22-22--22-22-22--22---|
A|---22---------22--------22----------|
E|------------------------------------|


************************************

9) AMERICAN CANDY

Artist: The Maine
Song: American Candy 
Album: American Candy
Tabbed by: Matthew Florio; facebook.com/smeeplayscheap
E-mail: shempashland@yahoo.com

Tuning: Standard w/ Capo on 1st Fret

Intro
*Keyboard transcribed for Guitar (also through the Verse)
e|----------------------------------|
B|-----2---2----2---2---2---2-------|
G|-----2---2----2---2---2---2-------|
D|------------0---0-----------------|
A|--------------------0---0---------|
E|---2---2--------------------------|

Verse

e|---2~----0~----0~----2~----0~----0~---|
B|---2~----3~----0~----2~----3~----0~---|
G|---2~----2~----2~----2~----2~----2~---|
D|---4~----0~----2~----4~----0~----2~---|
A|---4~----------0~----4~----------0~---|
E|---2~----------------2~---------------|
"what will you do on the weekends..."

Chorus
     F#m      Dsus     Asus
e|---22222222-00000000-00000000--22222222-00000000-00000000---|
B|---22222222-33333333-00000000--22222222-33333333-00000000---|
G|---22222222-22222222-22222222--22222222-22222222-22222222---|
D|---44444444-00000000-22222222--44444444-00000000-22222222---|
A|---44444444----------00000000--44444444----------00000000---|
E|---22222222--------------------22222222---------------------|
"Theyve got american candy..."
*on the last rotation stop after the Dsus right before the 2nd Verse.

Verse

Chorus

Bridge

e|---0000--0000--0000-0000--0000-0000-0000-0000-|
B|---3333--0000--0000-0000--3333-0000-0000-0000-|
G|---2222--2222--2222-1111--2222-2222-2222-1111-|
D|---0000--2222--2222-2222--0000-2222-2222-2222-|
A|---------0000--xxxx-2222-------0000-xxxx-2222-|
E|---------------2222-0000------------2222-0000-|
"sometimes I feel as though..."

Interlude
*same as Bridge
[2:26]

Chorus

Bridge till end.

End on.
e|---0~---------|
B|---3~---------|
G|---2~---------|
D|---0~---------|
A|--------------|
E|--------------|


************************************

10) ANOTHER NIGHT ON MARS

Artist: The Maine
Song: Another Night On Mars
Album: American Candy
Tabbed by: Matthew Florio; facebook.com/smeeplayscheap
E-mail: shempashland@yahoo.com

Tuning: Standard

Intro / Verse

e|---------------------11111111-------------------|
B|---11111111-11111111-33333333-11111111----------|
G|---22222222-33333333-22222222-00000000----------|
D|---33333333-33333333-00000000-22222222----------|
A|---33333333-------------------33333333----------|
E|------------------------------------------------|
"This one goes out to my closest..."

Chorus

e|---------------------------------------------------------------------------|
B|---11111111-11111111-11111111-11111111-11111111-11111111-11111111-11111111-|
G|---22222222-33333333-33333333-22222222-22222222-33333333-33333333-22222222-|
D|---33333333-33333333-33333333-33333333-33333333-33333333-33333333-33333333-|
A|---33333333-------------------33333333-33333333----------------------------|
E|---------------------------------------------------------------------------|
"Whats another night on mars..."

Bridge

e|--------1~------------------1~-----------------|
B|---1~---2~---1~---1~---1~---2~---1~---1~---1~--|
G|---2~---3~---2~---3~---2~---3~---2~---3~---0~--|
D|---3~---0~---2~---3~---3~---0~---2~---3~---2~--|
A|---3~--------0~--------3~--------0~--------3~--|
E|-----------------------------------------------|
"The earthlings crawl from bar..."

Chorus till end.

************************************

| /   slide up
| \   slide down
| h   hammer-on
| p   pull-off
| ~   vibrato
| +   harmonic
| x   Mute note
| b   Bend
| pb  Pre-bend
| br  Bend release
| pbr Pre-bend release
| brb Bend release bend

************************************
Добавлено: 01.10.2015
Вам также может быть интересно:
Другие материалы по этой песне:
  • Аккорды и текст

Страница создана 01.10.2015
http://primanota.ru/the-maine/american-candy-album-chords.htm
Привет, Гость.
Предлагаем пройти революционный курс по гитаре.
Подарок от PrimaNota.Ru, забирай!