PrimaNota.ru - самый крупный в мире бесплатный архив песенных текстов, аккордов, табулатур и нот


The Mad Conductor - Los Destapadores - таба, видео

Регистрация Запомнить меня
Войти через:  Facebook Google Twitter Vk Yandex Mail.ru

The Mad Conductor - Los Destapadores - таба, видео

Печатать
Просмотров: 87
-------------------------------------------------------------------------------
                                Los Destapadores - The Mad Conductor
-------------------------------------------------------------------------------
Tabbed by: Jonathon Kuhlman
Email: Thelight325@hotmail.com

Tuning: Standard

I know it's not complete yet, I am still trying to figure out the other parts.
Listen to the song to get the rhythm. http://www.youtube.com/watch?v=wFEAHlE8mK4

Intro
e|------------5-3--5--5-3-1-3-1----------------------|
B|--------3-5--------------------5-3-5---------------|
G|-2--4-5--------------------------------------------|
D|---------------------------------------------------|
A|-------------------------------------777-555-323---|
E|---------------------------------------------------|

Alternative way to play intro
e|-------------------------------------------------------|
B|-------------10-8--10--10-8-6-8-6----------------------|
G|---------7-9-----------------------9-7-9---------------|
D|-7--9-10-----------------------------------------------|
A|-----------------------------------------777-555-323---|
E|-------------------------------------------------------|

Electric guitar
e|-----------15--12------------15--12-------12---|
B|-13--10-13---------13--10-13---------(8)-------|
G|-------------------------------------(12)------|
D|-----------------------------------------------|
A|-----------------------------------------------|
E|-----------------------------------------------|

Acoustic guitar
e|---------------------------------------------------|
B|---------------------------------------------------|
G|------------5-4--5--5-4-2-4-2----------------------| play
D|--------5-7--------------------5-3-5---------------| twice
A|-3--5-7------------------------------777-555-323---|
E|---------------------------------------------------|

e|------------5-3--5--(5-3-1-3-1---------------------|
B|--------3-5--------------------5-3-5)--------------|
G|-2--4-5--------------------------------------------| the notes in parenthesis aren't 
D|---------------------------------------------------| played, but I like to play them
A|-------------------------------------777-555-323---|
E|---------------------------------------------------|

Interlude with lady talking nonsense and bongos

Acoustic guitar
e|------------5-3---|
B|--------3-5-------|
G|-2--4-5-----------| play
D|------------------| twice
A|------------------|
E|------------------|

e|---------------|
B|---------------|
G|---------------| play
D|---------------| twice
A|-777-555-323---|
E|---------------|

e|------------5-3--5--5-3-1-3-1----------------------|
B|--------3-5--------------------5-3-5---------------|
G|-2--4-5--------------------------------------------|
D|---------------------------------------------------|
A|-------------------------------------777-555-323---|
E|---------------------------------------------------|

Electric guitar
e|-------------------------------------------------------------------------------|
B|-------------------------------------------------------------------------------|
G|-9-9-10-12-14-14-14-14----14-14-12-10-9-9-9-9----9-9-10-12-14-14--12-10-12-9---| play
D|-------------------------------------------------------------------------------| twice
A|-------------------------------------------------------------------------------|
E|-------------------------------------------------------------------------------|

Electric guitar
e|-----------15--12------------15--12---|
B|-13--10-13---------13--10-13----------|
G|--------------------------------------|
D|--------------------------------------|
A|--------------------------------------|
E|--------------------------------------|

Outro
e|-8-10-12-8-10--1010---|
B|----------------------|
G|----------------------|
D|----------------------|
A|----------------------|
E|----------------------|

************************************

| /   slide up
| \   slide down
| h   hammer-on
| p   pull-off
| ~   vibrato
| +   harmonic
| x   Mute note
| b   Bend
| pb  Pre-bend
| br  Bend release
| pbr Pre-bend release
| brb Bend release bend
| (x) two notes directly on top of each other in parenthesis means they 
| (x) are the same note on a different string, play whichever you prefer
     
************************************
Добавлено: 26.05.2012
Вам также может быть интересно:
Другие материалы по этой песне:
  • Аккорды и текст

Страница создана 26.05.2012
http://primanota.ru/the-mad-conductor/los-destapadores-chords.htm
Привет, Гость.
Предлагаем пройти революционный курс по гитаре.
Подарок от PrimaNota.Ru, забирай!