PrimaNota.ru - самый крупный в мире бесплатный архив песенных текстов, аккордов, табулатур и нот


The Loved Ones - Arsenic - таба, видео

Регистрация Запомнить меня
Войти через:  Facebook Google Twitter Vk Yandex Mail.ru

The Loved Ones - Arsenic - таба, видео

Печатать
Просмотров: 123
The Loved Ones
Arsenic

chezklist

just figure out the strumming
(This is all for rythum guitar, Lead uses
a mix of bar chords Im guessing?)

Intro

E---------------------------------------------------------------|
B---------------------------------------------------------------|
G------2----2-----------2-----2----------2-----2----------------|
D-0-3---0-3--3-2------3----3---3--2----3-----3---3--2-----------|
A------------------1-----1--------------------------------------|
E------------------------------------1------1-------------------|

E-
B-
G-
D-5
A-3
E-


verse

E-----------------|
B-----------------|
G-----------------|
D-7---3--------5--|
A-5---1---3----3--|
E---------1-------|


chorus

E--------------|
B--------------|
G-----3------5-|
D-5---3--3---5-|
A-5---1--3---3-|
E-3------1-----|


E-----------------|
B-----------------|
G-----2----2----2-| <-(bend)
D-0-3--0-3--0-3---|



Interlude

E------------------------|
B------------------------|
G--------2-3-------------|
D-5-------------3-2------|
A-3-5----------------3---|
E---3--1-----------------|

Outro

E------
B------
G-7-5-3
D-7-5-3
A-5-3-1
E------
Добавлено: 07.03.2012
Другие материалы по этой песне:
  • Аккорды и текст

Страница создана 04.03.2012
http://primanota.ru/the-loved-ones/arsenic-chords.htm
Привет, Гость.
Предлагаем пройти революционный курс по гитаре.
Подарок от PrimaNota.Ru, забирай!