PrimaNota.ru - самый крупный в мире бесплатный архив песенных текстов, аккордов, табулатур и нот


The Lost Colors - Say Ok - таба, бас-таба, видео

Регистрация Запомнить меня
Войти через:  Facebook Google Twitter Vk Yandex Mail.ru

The Lost Colors - Say Ok - таба, бас-таба, видео

Печатать
Просмотров: 161
Say OK
The Lost Colors
Accninjafan


Intro:
e|----00--|--------|--------|--------|
B|--33----|--------|--------|--------|
G|/5----22|--0022--|----0---|----00--|
D|--------|22----00|--22-44-|0044--44|
A|--------|--------|33------|--------|
D|--------|--------|--------|--------|

e|----00--|--------|--------|--------|
B|--33----|--------|--------|--------|
G|/5----22|--0022--|----0---|--------|
D|--------|22----00|--22-44-|00000000|
A|--------|--------|33------|00000000|
D|--------|--------|--------|00000000|   

                                     X2
e|--------|--------|--------|--------||
B|--------|--------|--------|--------||
G|--9-----|--------|55555555|77777777||
D|2-9-2220|2202222/|55555555|77777777||
A|2-7-2220|2202222/|33333333|55555555||
D|2---2220|2202222/|--------|--------||



Verse:                               
e|--------|--------|--------|--------|
B|--------|--------|--------|--------|
G|--------|--------|--------|--------|
D|--------|--------|55-555-5|--------|
A|77-777-7|77-777-7|--------|55-555-5|
D|--------|--------|--------|--------|

e|--------------|--------------|--------|--------|
B|--------------|--------------|--------|--------|
G|--------------|--------------|--------|--------|
D|--------------|--------------|---9-9--|---9-9--|
A|7-7(10)-(10)--|7-7(10)-(10)--|7-7-----|7-7-----|
D|--------------|--------------|--------|--------|

Pre-Chorus:
e|--------------|--------------|--------|--------|
B|--------------|--------------|--------|--------|
G|--------------|--------------|--------|--------|
D|--------------|--------------|---9-9--|00--00--|
A|7-7(10)-(10)--|7-7(10)-(10)--|7-7-----|00--00--|
D|--------------|--------------|--------|00--00--|



Chorus X4:
e|--------|--------|--------|--------|
B|--------|--------|--------|--------|
G|--------|--------|55555555|77777777|
D|22222220|2202222/|55555555|77777777|
A|22222220|2202222/|33333333|55555555|
D|22222220|2202222/|--------|--------|



Verse:                               X2
e|--------|--------|--------|--------||
B|--------|--------|--------|--------||
G|--------|--------|--------|--------||
D|--------|--------|55-555-5|--------||
A|77-777-7|77-777-7|--------|55-555-5||
D|--------|--------|--------|--------||

e|--------|--------|------------|--------|
B|--------|--------|------------|--------|
G|-9x9x9x9|x9x9x9x9|x12x12x12x12|x7x7x7x7|
G|-9x9x9x9|x9x9x9x9|x12x12x12x12|x7x7x7x7|
A|-7x7x7x7|x7x7x7x7|x10x10x10x10|x5x5x5x5|
D|--------|--------|------------|--------|



(Pre-Chorus)
e|--------|--------|------------|--------|
B|--------|--------|------------|--------|
G|-9x9x9x9|x9x9x9x9|x12x12x12x12|--------|
D|-9x9x9x9|x9x9x9x9|x12x12x12x12|0-0-0-0-|
A|-7x7x7x7|x7x7x7x7|x10x10x10x10|0-0-0-0-|
D|--------|--------|------------|0-0-0-0-|



Chorus X4:
e|--------|--------|--------|--------|
B|--------|--------|--------|--------|
G|--------|--------|55555555|77777777|
D|22222220|2202222/|55555555|77777777|
A|22222220|2202222/|33333333|55555555|
D|22222220|2202222/|--------|--------|



Music Break/Bridge:
e|--------|--------|--------|--------|
B|--------|--------|--------|--------|
G|--------|--------|--------|--------|
D|2-------|--------|--------|--------|
A|2-------|--------|--------|--------|
D|2-------|--------|--------|--------|

e|--------|--------|--------|--------|
B|--------|--------|--------|--------|
G|--------|--------|--------|--------|
D|--------|--------|--------|33333333|
A|--------|33333333|00000000|33333333|
D|22222222|--------|--------|33333333|
                                     
e|--------|--------|--------|--------|
B|--------|--------|--------|--------|
G|--------|55555555|--------|--------|
D|22222222|55555555|77777777|55550000|
A|22222222|33333333|77777777|55550000|
D|22222222|--------|77777777|55550000|

e|--------|--------|--------|--------|
B|--------|--------|--------|--------|
G|--------|55555555|--------|----7777|
D|22222222|55555555|77777777|55557777|
A|22222222|33333333|77777777|55555555|
D|22222222|--------|77777777|5555----|

e|--------|--------|--------|--------|
B|--------|--------|--------|--------|
G|--------|55555555|--------|--------|
D|22222222|55555555|77777777|55550000|
A|22222222|33333333|77777777|55550000|
D|22222222|--------|77777777|55550000|

e|--------|--------|--------|--------|
B|--------|--------|--------|--------|
G|--------|55555555|--------|--------|
D|22222222|55555555|77777777|33333333|
A|22222222|33333333|77777777|33333333|
D|22222222|--------|77777777|33333333|


Chorus X4:
e|--------|--------|--------|--------|
B|--------|--------|--------|--------|
G|--------|--------|55555555|77777777|
D|2222222x|22x2222/|55555555|77777777|
A|2222222x|22x2222/|33333333|55555555|
D|2222222x|22x2222/|--------|--------|


Fin:
e|--------|--------|--------|--------|
B|--------|--------|--------|--------|
G|--------|--------|5-------|7------7|
D|2-------|--------|5-------|7------7|
A|2-------|--------|3-------|55555555|
D|2-------|--------|--------|--------|

Добавлено: 17.07.2012
Другие материалы по этой песне:
  • Аккорды и текст

Страница создана 25.02.2012
http://primanota.ru/the-lost-colors/say-ok-chords.htm
Привет, Гость.
Предлагаем пройти революционный курс по гитаре.
Подарок от PrimaNota.Ru, забирай!