PrimaNota.ru - самый крупный в мире бесплатный архив песенных текстов, аккордов, табулатур и нот


The Living End - Wake Up - аккорды и текст, таба, бас-таба, драм-таба, видео

Регистрация Запомнить меня
Войти через:  Facebook Google Twitter Vk Yandex Mail.ru

The Living End - Wake Up - аккорды и текст, таба, бас-таба, драм-таба, видео

Печатать
Просмотров: 486
Wake Up
The Living End


The Living End- Wake up

Tuning: Standard ( E, A, D, g, b, e )

contact me at green_day_roxxx@hotmail.com

intro:
  Bm       G         Bm       A        Bm
e:--------------------------------------------
b:--------------------------------------------
g:---4-2------0--------4-2------2--------4-2--
D:--4----4------4-2---4----4---2--2-4---4----4
A:-2---------2-------2--------0--------2------
E:----------0---------------------------------

  G        Bm
--------------------------
--------------------------
----0--------4-2----------
------4-2---4----2-4-4-4-4 X2
---2-------2--------------
--0-----------------------

Verse 1:
Intro X4
but on the end of the last bit it goes:
   Bm
e:---------2
b:---------3
g:---4-2---4( let ring )
D:--4----2-4
A:-2-------2
E:----------

Verse 1 lyrics:
Bm                G
I've been burried in the sand
Bm                  A
I've come down with no place to land
Bm                 G
I don't need you to understand
Bm
  It's not what I had planned

Bm            G
All the hunger all the yearning
Bm               A
With the lifeline that you're burning
Bm           G
Poison lesson that you're learning
Bm
The road ahead is turning

Chorus ( Bar Chords ):
   Bm       G        D        F#
e:-22222222-33333333-55555555-22222222
b:-33333333-33333333-55555555-22222222
g:-44444444-44444444-77777777-33333333
D:-44444444-55555555-77777777-44444444 X2
A:-22222222-55555555-55555555-44444444
E:----------33333333----------22222222

 G
-33333333
-33333333
-44444444
-55555555 X2
-55555555
-33333333

Chorus lyrics:
Bm       G
Suicidle education
D              F#
It got sold to our generation
Bm                G
So wake up to the manipulation
D             F#
Wake up to the situation
G
suicidle education

Verse 2:
   Bm
e:-2-------
b:-3-------
g:-4-4X4X4X
D:-4-4X4X4X X2
A:-2-2X2X2X
E:---------

 Bm       G        Bm       A        Bm
---------------------------------------------
---------------------------------------------
-4-4X4X4X----------4-4X4X4X----------4-4X4X4X
-4-4X4X4X-5-5X5X5X-4-4X4X4X-7-7X7X7X-4-4X4X4X
-2-2X2X2X-5-5X5X5X-2-2X2X2X-7-7X7X7X-2-2X2X2X
----------3-3X3X3X----------5-5X5X5X---------

 G        Bm
-------------------2-------
-------------------3-------
----------4-4X4X4X-4-4X4X4X
-5-5X5X5X-4-4X4X4X-4-4X4X4X X2
-5-5X5X5X-2-2X2X2X-2-2X2X2X
-3-3X3X3X------------------

 Bm
-2
-3
-4
-4 ( let ring )
-2
--

Verse 2 lyrics:
Bm            G
Stick together side by side
Bm          A
We no longer need to hide
Bm               G
From the darkness into the light
Bm
now is your time

Bm                G
I need something to numb the pain
Bm              A
Forget me and forget my name
Bm             G
Waiting for the time to arrive
Bm
No one gets out of here alive

Reapeat Chorus

Bridge/verse thingy:
 Bm
-2-XXXXX
-3-XXXXX
-4-XXXXX
-4-XXXXX X2
-2-XXXXX
--------

 Bm
-2-XX-2-2
-3-XX-3-3
-4-XX-4-4
-4-XX-4-4
-2-XX-2-2
---------

Bridge/chorus thingy:

Same as Chorus exept the G at the end lasts for twice as long.

Bridge/chorus thingy lyrics:

Bm      G
Wake up wake up
D       F#
Wake up wake up
Bm      G
Wake up wake up
D       F#
Wake up wake up
G
Wake up
G
Wake up

Repeat intro

Repeat first half of 1st verse

Chorus with different strumming pattern:
  Bm     G    D     F#
e-----2-----3-----5-----2
b----3------3----5-----2-
g---4------4----7-----3--
D--4------5----7-----4--- X8
A-2------5----5-----4----
E-------3----------------

Lyrics:
Same as chorus X4 without the last suicidle education

Outro:
 Bm
--
-3
-4
-4 ( let ring )
-2
--

Добавлено: 11.11.2013
Другие материалы по этой песне:

Страница создана 28.02.2012
http://primanota.ru/the-living-end/wake-up-chords.htm
Привет, Гость.
Предлагаем пройти революционный курс по гитаре.
Подарок от PrimaNota.Ru, забирай!