PrimaNota.ru - самый крупный в мире бесплатный архив песенных текстов, аккордов, табулатур и нот


The Living End - There is no Radio - аккорды и текст, таба, видео

Регистрация Запомнить меня
Войти через:  Facebook Google Twitter Vk Yandex Mail.ru

The Living End - There is no Radio - аккорды и текст, таба, видео

Печатать
Просмотров: 134
Уроки эстрадного вокала в Санкт-Петербурге
There is no Radio
The Living End
		   -THE LIVING ENDm
                                       There Is No Radio
                        Tabbed By Michael Fryar-manumick20@yahoo.com

WARNING:!!! The tuning of your guitar in this song is as followed:

e-
b-
g-
c- yes thats C not D
a-
e-

x=dead nore
h=hammer-on
p=pull off
*sw*=sweep in between *
s=slide
~=full bend


Intro:

Sorry I dont have that first slidy bit.too hard to figure out!

e---------------------------------------------------------------------------
b-12-------12----------12------12-------------------------------------------
g----9h10-----9h10-10-----9h10----9h10-9h10-reat as many times as needed----
c---------------------------------------------------------------------------
a---------------------------------------------------------------------------
e---------------------------------------------------------------------------

e---------------------------------------------------------------------------
b-11-----10-----9-----8-----------------------------------------------------
g----8h9----7h8---6h7---5h6-------------------------------------------------
d---------------------------------------------------------------------------
a---------------------------------------------------------------------------
e---------------------------------------------------------------------------

Verse:

e---------------------------------------------------------------------------
b---------------------------------------------------------------------------
g--------------0---------------0--------------------------------------------
c-7-5p0--7-5p0----7-5p0--7-5p0----repeat as needed--------------------------
a---------------------------------------------------------------------------
e---------------------------------------------------------------------------

e---------------------------------------------------------------------------
b---------------------------------------------------------------------------
g------------------------------------------------------------------6-5------
c-x--x-x---x--x-x---x--x-x---x--x-x---x--x-x---x--x-x---x--x-x---x-8-7------
a-x--x-x---x--x-x---x--x-x---x--x-x---x--x-x---x--x-x---x--x-x---x----------
e-x--x-x---x--x-x---x--x-x---x--x-x---x--x-x---x--x-x---x--x-x---x----------

e---------------------------------------------------------------------------
b---------------------------------------------------------------------------
g---------------------------------------------------------------------------
c-x--x-x---x--x-x---x--x-x---x--x-x-----------------------------------------
a-x--x-x---x--x-x---x--x-x---x--x-x-3-4-3-4-3-4-3-4-------------------------
e-x--x-x---x--x-x---x--x-x---x--x-x-----------------------------------------

   Am       F        Am       F        Am      F
e-------------------------------------------------------:-------------------------------------------------
b-------------------------------------------------------:-------------------------------------------------
g--2--4--5-----------2--4--5-----------2--4--5----------:----------------0--------------------------------
c--4--4--4--5-5-5-5--4--4--4--5-5-5-5--4--4--4--5-5-5-5-:--7-5p0---7-5p0----repeat last section as needed-
a--0--0--0--3-3-3-3--0--0--0--3-3-3-3--0--0--0--3-3-3-3-:-------------------------------------------------
e-----------1-1-1-1-----------1-1-1-1-----------1-1-1-1-:-------------------------------------------------
   Am                   F           E     Am                   F            E
e--------------------------------------------------------------------------------
b--------------------------------------------------------------------------------
g--2-2-2-2-2-2----------------------------2-2-2-2-2-2----------------------------
c--4-4-4-4-4-4----------5-5-5-5-5-5-------4-4-4-4-4-4----------5-5-5-5-5-5-------
a--0-0-0-0-0-0-0-2-3-0--3-3-3-3-3-3-2-2---0-0-0-0-0-0-0-2-3-0--3-3-3-3-3-3-2-2---
e-----------------------1-1-1-1-1-1-0-0------------------------1-1-1-1-1-1-0-0---

Chorus: *strum chords as needed*
   Cm  Bb  F   G    G# G
e----------------------------
b--4---3---1-----------------
g--5---3---2-----------------
c--x---x---x-----------------
a--3---1---3---5-5-5-6-5-----
e----------1---3-3-3-4-3-----

Verse

Chorus

Bridge: *strum chords as needed*
  C                    C    Am   F    Fm    C    Am   F   Fm
e--------------------:-8----5----1----1-----8----5----1----1---
b--------------------:-8----5----1----1-----8----5----1----1---
g--------------------:-9----6----2----1-----9----6----2----1---
c--------------------:-10---7----3----3-----10---7----3----3---
a-10-----------------:-10---7----3----3-----10---7----3----3---
e-8-(palm muted x16)-:-8----5----1----1-----8----5----1----1---

Solo:

e-------------------:----------------1-:-5-8-7-8-7h8p7-5--------:-
b-------------------:--------------1---:-----------------8-6-5s-:-
g-2--2-2--2--2s-9-9-:------------2-----:------------------------:-
c-------------------:------------------:------------------------:-
a-------------------:-0-2-3-0----------:------------------------:-
e-------------------:---------1--------:------------------------:-

       *  sw  *        *  sw  *        *  sw  *        *  sw  *
e-15p12-----12---17p12------12---15p12------12---17p12------12-:-15-~-13s12-----------------:-
b---------13--------------13--------------13--------------13---:-------------15p13s12-------:-
g-------14--------------14--------------14--------------14-----:----------------------14-12-:-
c--------------------------------------------------------------:----------------------------:-
a--------------------------------------------------------------:----------------------------:-
e--------------------------------------------------------------:----------------------------:-


e--------------------11-----:-13-11-----------------------------:-
b---------------------------:-------13-12-11-9-11-9-11-9--------:-
g-12-10-12-10-12-10~----s-8-:----------------------------10-9-8-:-
c---------------------------:-----------------------------------:-
a---------------------------:-----------------------------------:-
e---------------------------:-----------------------------------:-



e--------------------------------------------:---------------------------------------:
b------13------14-------13------11--8-8------:---------------------------------------:
g-----------------------------------x-x-(x4)-:-000000.ect 4444444.ect-777777.ect-10--:
c-10s12---12s13---13s12----12s10----5-5------:---------------------------------------:
a--------------------------------------------:---------------------------------------:
e--------------------------------------------:---------------------------------------:.


Chorus.     
Добавлено: 19.08.2013
Другие материалы по этой песне:
  • Аккорды и текст

Страница создана 27.03.2012
http://primanota.ru/the-living-end/there-is-no-radio-chords.htm
Привет, Гость.
Предлагаем пройти революционный курс по гитаре.
Подарок от PrimaNota.Ru, забирай!