PrimaNota.ru - самый крупный в мире бесплатный архив песенных текстов, аккордов, табулатур и нот


The Living End - State Of Emergency - текст песни, таба, бас-таба, видео

Регистрация Запомнить меня
Войти через:  Facebook Google Twitter Vk Yandex Mail.ru

The Living End - State Of Emergency - текст песни, таба, бас-таба, видео

Печатать
Просмотров: 133
                                    STATE OF EMERGENC

/= slide up
\= slide down
p= pull off
h= hammer on
b= half bend
^= full bend
^^= bend 2 frets
v= bring bend down
pm= palm mute
~= vibrado


Intro:

e-----------------------|-----------------------------------|
b-----------------------|-----------------------------------|
g-----------------------|-----------------------------------|
d------4p2--------(x3)--|-----------------------------------|
a----------4p2p0--------|--4-4-4-4-4-4-4-4-5-5-5-5-5-5-5-5--|
e--2~-------------------|--5-5-5-5-5-5-5-5-7-7-7-7-7-7-7-7--|


Verse 1:

e-------------------------------------------------------------------|
b-------------------------------------------------------------------|
g-------------------------------------------------------------------|
d-------------------------------------------------------------------| x3
a--0-0-0-0-0-0-0-0-0-0-0-0-0-0-0-0-4-4-4-4-4-4-4-4-5-5-5-5-5-5-5-5--|
e--2-2-2-2-2-2-2-0-2-2-2-2-2-2-2-0-5-5-5-5-5-5-5-5-7-7-7-7-7-7-7-7--|


e-----------------------------|
b--6-6-6----6-6-6----6-6-6-6--|
g--6-6-6----6-6-6----6-6-6-6--|
d--6-6-6----6-6-6----6-6-6-6--|
a--4-4-4----4-4-4----4-4-4-4--|
e-----------------------------|


Chorus:

e-------------------------------------------------------------------|
b-------------------------------------------------------------------|
g-------------------------------------------------------------------|
d--4-4-4-4-4-4-4-4-6-6-6-6-6-6-6-6-7-7-7-7-7-7-7-7-9-9-9-9-9-9-9-9--| x2
a--x-x-x-x-x-x-x-x-x-x-x-x-x-x-x-x-x-x-x-x-x-x-x-x-x-x-x-x-x-x-x-x--|
e--2-2-2-2-2-2-2-2-4-4-4-4-4-4-4-4-5-5-5-5-5-5-5-5-7-7-7-7-7-7-7-7--|


e-------------------------------------------------------------------|
b-------------------------------------------------------------------|
g-11-11-11--11--11--/14--13--11--9--6-6-6-6-6-6-6-6--14--13--11--9--|
d--x--x--x---x---x----x---x---x--x--x-x-x-x-x-x-x-x---x---x---x--x--| x2
a--9--9--9---9---9--/12--11---9--7--4-4-4-4-4-4-4-4--12--11---9--7--|
e-------------------------------------------------------------------|


Verse 2: As with Verse 1, with 2nd guitar playing intro.


Chorus


Bridge:

Guitar 1
e-------------------------------------------------------------------|
b-------------------------------------------------------------------|
g-------------------------------------------------------------------|
d-------------------------------------------------------------------|
a--4-----4-----4---5-----5-----5---7-----7-----7---5-----5-----5----|
e--5-5-5-5-5-5-5-5-7-7-7-7-7-7-7-7-9-9-9-9-9-9-9-9-7-7-7-7-7-7-7-7--|
   pm.............................................................

e-------------------------------------------------------------------|
b-------------------------------------------------------------------|
g-------------------------------------------------------------------|
d-------------------------------------------------------------------|
a--4-----4-----4---5-----5-----5---7-----7-----7---7-----7-----7----|
e--5-5-5-5-5-5-5-5-7-7-7-7-7-7-7-7-9-9-9-9-9-9-9-9-9-9-9-9-9-9-9-9--|
   pm.............................................................


Guitar 2
e---------------------------------------------------------------------------|
b--10----10--------10----10--------10-------10-------------10----10---------|
g--x-x-x-x-x-x-x-x-x-x-x-x-x-x-x-x--x--x--x--x--x--x--x--x-x-x-x-x-x-x-x-x--|
d--7-7-7-7-7-7-7-7-9-9-9-9-9-9-9-9-11-11-11-11-11-11-11-11-9-9-9-9-9-9-9-9--|
a---------------------------------------------------------------------------|
e---------------------------------------------------------------------------|
   pm.....................................................................

e-----------------------------------------------------------------------------------|
b--10----10--------10----10--------10-------10-------------10-------10--------------|
g--x-x-x-x-x-x-x-x-x-x-x-x-x-x-x-x--x--x--x--x--x--x--x--x--x--x--x--x--x--x--x--x--|
d--7-7-7-7-7-7-7-7-9-9-9-9-9-9-9-9-11-11-11-11-11-11-11-11-11-11-11-11-11-11-11-11--|
a-----------------------------------------------------------------------------------|
e-----------------------------------------------------------------------------------|
   pm.............................................................................



Pre Solo:

e--------------------------|--------------------|
b--------------------------|--------------------|
g------11p9----------------|--------------------|
d-----------11p9-----(x3)--|--7----7----9----9--|
a--9~------------12--------|--7----7----9----9--|
e--------------------------|--5----5----7----7--|



Solo: Rythym guitar plays intro

e-----------------------|--------------------------------|
b-----------------------|--------------------------------|
g-----------------------|-----------------------------9--|
d------4p2--------(x3)--|--------6~--7p6-7--9~--9p7-9----|
a----------4p2p0--------|--9p7-9-------------------------|
e--2~-------------------|--------------------------------|

e--------------------------------------------------------------------------------------------------------|
b-----------------------------------------------------------------14-----14--14--14--14--14--14--14--14--|
g--11~--14p13p11------------14p13p11------------14p13p11-11-13/14-16^^---^^--^^--^v--^v--^v--^v--^v--^v--|
d----------------14-11---------------14-11---------------------------------------------------------------|
a----------------------12~-----------------12~-----------------------------------------------------------|
e--------------------------------------------------------------------------------------------------------|
                                                                         (Gradually release the bend)

e-------------------------------------------------------------------------------------------|
b--14\--------------------------------------------------------------------------------------|
g--14\--6b~-------6b~------------------------------------------------------6---6-9p6-9-9^^--|
d-------7b~--\----6b~--4---------------------------------------7---7-9p7-9---9--------------|
a------------\-----------7~--9~--9-9p7-------------7---7-9h7-9---9--------------------------|
e------------\-2~----------------------7p5-7-9p7-9---9--------------------------------------|



Post Solo:

e-----------------------|-----------------------------------|
b-----------------------|-----------------------------------|
g-----------------------|-----------------------------------|
d------4p2--------(x3)--|-----------------------------------| x2
a----------4p2p0--------|--4-4-4-4-4-4-4-4-5-5-5-5-5-5-5-5--|
e--2~-------------------|--5-5-5-5-5-5-5-5-7-7-7-7-7-7-7-7--|

e-----------------------------|
b--6-6-6----6-6-6----6-6-6-6--|
g--6-6-6----6-6-6----6-6-6-6--|
d--6-6-6----6-6-6----6-6-6-6--|
a--4-4-4----4-4-4----4-4-4-4--|
e-----------------------------|



Chorus



Outro:

e-------------------------------------------------------------------------------------------|
b-------------------------------------------------------------------------------------------|
g--11-11-11-11-11-11-11-11-11-11-11-11-11-11-11-11-11-11-11-11-11-11-11-11---14--13--11--9--|
d---x--x--x--x--x--x--x--x--x--x--x--x--x--x--x--x--x--x--x--x--x--x--x--x----x---x---x--x--|
a---9--9--9--9--9--9--9--9--9--9--9--9--9--9--9--9--9--9--9--9--9--9--9--9--/12--11---9--7--|
e-------------------------------------------------------------------------------------------|

e------------------------------------------------|
b------------------------------------------------|
g------------------------------------------------|
d------4p2-----------4p2-----------4p2-----------|
a----------4p2p0---------4p2p0---------4p2p0-----|
e--2~------------2~------------2~------------2\--|


Tabbed by Jason Zarpellon
jason_zarps@hotmail.com
www.thelivingendtabpage.cjb.net
                   
Добавлено: 18.05.2012
Другие материалы по этой песне:

Страница создана 15.03.2012
http://primanota.ru/the-living-end/state-of-emergency-chords.htm
Привет, Гость.
Предлагаем пройти революционный курс по гитаре.
Подарок от PrimaNota.Ru, забирай!