PrimaNota.ru - самый крупный в мире бесплатный архив песенных текстов, аккордов, табулатур и нот


The Living End - So What - текст песни, таба, видео

Регистрация Запомнить меня
Войти через:  Facebook Google Twitter Vk Yandex Mail.ru

The Living End - So What - текст песни, таба, видео

Печатать
Просмотров: 100
----SO WHAT----

/= slide up
\= slide down
h= hammer on
p= pull off
h= hammer on
^= full bend
v= bring bend down
~= vibrado

hehehe....This song always makes me laugh!
Its so....unexpectedly non-Living End! Its a good country song... but....
It's just not like the living end to do a song like this!
The funni thing is that my Dad like this song for its country-ness!


Intro: 

Rythem
e--0--0---1--1---0--0-0--3--3------|
b--1--1---1--1---0--0-0--0--0------|
g--0--0---2--2---0--0-0--0--0------|
d--2--2---3--3---2--2-2--0--0------| x2
a--3--3---3--3---2--2-2--2--2-0----|
e-------0-1--1p0-0--0-0--3--3------|

Lead
e--/8~------8\7\5--5\3--------0-----|
b-----------------------4/5---x-----|
g---------------------------5-5~----|
d-----------------------------------|
a-----------------------------------|
e-----------------------------------|



Verse: 

Rythem
e--0--0--0-0-0--0--0-0--1--1--1-1-1--1--1--1-1-1----|
b--1--1--1-1-1--1--1-1--1--1--1-1-1--1--1--1-1-1----|
g--0--0--0-0-0--0--0-0--2--2--2-2-2--2--2--2-2-2----|
d--2--2--2-2-2--2--2-2--3--3--3-3-3--3--3--3-3-3----|
a--3--3--3-3-3--3--3-3--3--3--3-3-3--3--3--3-3-3----|
e-----------------------1--1--1-1-1--1--1--1-1-1----|

Lead
e------------------------------------------5~-------|
b----------------------------------------6-----6----|
g-------------------------------------/5------------|
a---------------------------------------------------|
e---------------------------------------------------|
"Well I've been going out of my head, since I met you"


Rythem
e-0--0--0-0-0--3--3--3-3-3--1--1--1-1-1--3--3--3-3--|
b-1--1--1-1-1--0--0--0-0-0--1--1--1-1-1--3--3--3-3--|
g-0--0--0-0-0--0--0--0-0-0--2--2--2-2-2--0--0--0-0--|
d-2--2--2-2-2--0--0--0-0-0--3--3--3-3-3--0--0--0-0--|
a-3--3--3-3-3--2--2--2-2-2--3--3--3-3-3--2--2--2-2--|
e--------------3--3--3-3-3--1--1--1-1-1--3--3--3-3--|

Lead
e---------------------------------------------------|
b-------------/8~-------8\6~-------6\5----5----3~---|
g---------------------------------------------------|
d---------------------------------------------------|
a---------------------------------------------------|
e---------------------------------------------------|
"But you drive me up the wall it seems
What more can I do"


Rythem
e-1--1--1-1-1--0--0--0-0-0--1--1--1-1-1-------------|
b-1--1--1-1-1--1--1--1-1-1--1--1--1-1-1--1--1--1-1--|
g-2--2--2-2-2--0--0--0-0-0--2--2--2-2-2--2--2--2-2--|
d-3--3--3-3-3--2--2--2-2-2--3--3--3-3-3--2--2--2-2--|
a-3--3--3-3-3--3--3--3-3-3--3--3--3-3-3--0--0--0-0--|
e-1--1--1-1-1---------------1--1--1-1-1-------------|

Lead
e---------------------------------------------------|
b------------------5--------------------5-4/5--4/5--|
g--------------------5~-----------------------------|
d---------------------------------------------------|
a---------------------------------------------------|
e---------------------------------------------------|
"You're just no good for me,
so lock me up and throw away the key"


Rythem
e--0--0--0-0-0--1--1-1--3--3-3--0--0--0-0-0-0--0--0-0--|
b--1--1--1-1-1--1--1-1--3--3-3--1--1--1-1-1-1--1--1-1--|
g--0--0--0-0-0--2--2-2--4--4-4--0--0--0-0-0-0--0--0-0--|
d--2--2--2-2-2--3--3-3--5--5-5--2--2--2-2-2-2--2--2-2--|
a--3--3--3-3-3--3--3-3--5--5-5--3--3--3-3-3-3--3--3-3--|
e---------------1--1-1--3--3-3-------------------------|

Lead
e----------------------5~-5/7-7/8~---------------------|
b------------------6h8---------------------------------|
g--5~------------5-------------------------------------|
d------------------------------------------------------|
a------------------------------------------------------|
e------------------------------------------------------|
"'Cos I've just about had all
I can take from you."



Verse 2: Rythem same as verse 1. Yet another guitar can be heard
in this verse, which just plays notes of the chords that are being
played by the rythem guitar.


Chorus:

e-------------------------------|------------------------1---------|
b--1--1--1--1--1--1--1--1-------|---------------------------1------|
g--2--2--2--2--2--2--2--2-------|------0-------0-------2------2----|
d--2--2--2--2--3--3--3--3--(x2)-|----2---2---2---2---2----------2--|
a--0--0--0--0--3--3--3--3-------|--3-------2-------0---------------|
e--------------1--1--1--1-------|----------------------------------|
"So what? You never even gimme one shot
I don't wanna rain on your parade."

e------------------------------------|
b-------3-0-----0-------0-1-3-1-0----|
g-----------------0---0-----------2--|
d------------------------------------|
a----2--------2----------------------|
e--3--------3-------3----------------|
(I dont wanna rain on your parade,
don't wanna rain)

e-1--1--1-1-1--0--0--0-0-0--1--1--1-1-1-------------|
b-1--1--1-1-1--1--1--1-1-1--1--1--1-1-1--1--1--1-1--|
g-2--2--2-2-2--0--0--0-0-0--2--2--2-2-2--2--2--2-2--|
d-3--3--3-3-3--2--2--2-2-2--3--3--3-3-3--2--2--2-2--|
a-3--3--3-3-3--3--3--3-3-3--3--3--3-3-3--0--0--0-0--|
e-1--1--1-1-1---------------1--1--1-1-1-------------|
"You're really somethin'
But I'm nearly jumpin'"

e--0--0--0-0-0--1--1-1--3--3-3--0--0--0-0-0-0-------0-----|
b--1--1--1-1-1--1--1-1--3--3-3--1--1--1-1-1-1----------1--|
g--0--0--0-0-0--2--2-2--4--4-4--0--0--0-0-0-0-------------|
d--2--2--2-2-2--3--3-3--5--5-5--2--2--2-2-2-2---2---------|
a--3--3--3-3-3--3--3-3--5--5-5--3--3--3-3-3-3-3---3-------|
e---------------1--1-1--3--3-3----------------------------|
"Well I've been going out of my head
Since I met you"


Solo: Rythem plays chorus

e--8~----7/5-3--8~-----------------------------------------|
b---------------------/10--8~------------------------------|
g-----------------------------------------5-/9-7/10--9\7~--|
d--------------------------------9^~----5------------------|
a----------------------------------------------------------|
e----------------------------------------------------------|

e---------------------------------------5/7--8~--8p7-/15~--15^^v--10-8~---------/8~--|
b--8~----/10--8~-------------------10~------------------------------------------/8~--|
g-------------------5-/9--7\5-/10------------------------------------------9h10-10~--|
d-----------------5------------------------------------------------------------------|
a------------------------------------------------------------------------------------|
e------------------------------------------------------------------------------------|


Last chorus:

e-------------------------------|------------------------1---------|
b--1--1--1--1--1--1--1--1-------|---------------------------1------|
g--2--2--2--2--2--2--2--2-------|------0-------0-------2------2----|
d--2--2--2--2--3--3--3--3--(x2)-|----2---2---2---2---2----------2--|
a--0--0--0--0--3--3--3--3-------|--3-------2-------0---------------|
e--------------1--1--1--1-------|----------------------------------|
"So what? You never even gimme one shot
I don't wanna rain on your parade."

e------------------------------------|
b-------3-0-----0-------0-1-3-1-0----|
g-----------------0---0-----------2--|
d------------------------------------|
a----2--------2----------------------|
e--3--------3-------3----------------|
(I dont wanna rain on your parade,
don't wanna rain)

e-1--1--1-1-1--0--0--0-0-0--1--1--1-1-1-------------|
b-1--1--1-1-1--1--1--1-1-1--1--1--1-1-1--1--1--1-1--|
g-2--2--2-2-2--0--0--0-0-0--2--2--2-2-2--2--2--2-2--|
d-3--3--3-3-3--2--2--2-2-2--3--3--3-3-3--2--2--2-2--|
a-3--3--3-3-3--3--3--3-3-3--3--3--3-3-3--0--0--0-0--|
e-1--1--1-1-1---------------1--1--1-1-1-------------|
"You're really somethin'
But I'm nearly jumpin'"

e--0--0--0-0-0--1--1-1--3--3-3--0-------------------------------|
b--1--1--1-1-1--1--1-1--3--3-3--1--1-1-1-1-1-1-1-1-1-1-1-1-1-1--|
g--0--0--0-0-0--2--2-2--4--4-4--2--2-2-2-2-2-2-2-2-2-2-2-2-2-2--|
d--2--2--2-2-2--3--3-3--5--5-5--2--2-2-2-2-2-2-2-2-2-2-2-2-2-2--|
a--3--3--3-3-3--3--3-3--5--5-5--0--0-0-0-0-0-0-0-0-0-0-0-0-0-0--|
e---------------1--1-1--3--3-3----------------------------------|
"Well I've been going out of my head
Since I met you"

e--0--0--0-0-0--1--1-1--3--3-3----|
b--1--1--1-1-1--1--1-1--3--3-3----|
g--0--0--0-0-0--2--2-2--4--4-4----|
d--2--2--2-2-2--3--3-3--5--5-5----|
a--3--3--3-3-3--3--3-3--5--5-5----|
e---------------1--1-1--3--3-3----|
"Well I've been going out of my head
Since I met you"



Outro:

Rythem
e--0--0---1--1---0--0-0--3--3--------|--0--|
b--1--1---1--1---0--0-0--0--0--------|--1--|
g--0--0---2--2---0--0-0--0--0--------|--0--|
d--2--2---3--3---2--2-2--0--0--(x2)--|--2--| 
a--3--3---3--3---2--2-2--2--2--------|--3--|
e-------0-1--1p0-0--0-0--3--3--------|-----|

Lead
e--/8~------8\7\5--5\3--------0-----5p3-----------|
b-----------------------4/5---x---------3h5-3-----|
g---------------------------5-5~--------------/5--|
d-------------------------------------------------|
a-------------------------------------------------|
e-------------------------------------------------|


Either way this song has great guitar stuff!
Thanks guys once again, hope u enjoy it!

Tabbed By Moonpie/Mikey.B
Добавлено: 29.06.2012
Другие материалы по этой песне:
  • Аккорды и текст

Страница создана 16.06.2012
http://primanota.ru/the-living-end/so-what-chords.htm
Привет, Гость.
Предлагаем пройти революционный курс по гитаре.
Подарок от PrimaNota.Ru, забирай!