PrimaNota.ru - самый крупный в мире бесплатный архив песенных текстов, аккордов, табулатур и нот


The Living End - So Lonely - аккорды и текст, таба, бас-таба, видео

Регистрация Запомнить меня
Войти через:  Facebook Google Twitter Vk Yandex Mail.ru

The Living End - So Lonely - аккорды и текст, таба, бас-таба, видео

Печатать
Просмотров: 138
Авторы музыки: Sting
Авторы текста: Sting
So Lonely
The Living End
		   - THE LIVING END -
                               G Lonely
                         Tabbed By Michael Fryar
                          manumick20@yahoo.com


~=bend/vibrado
p=pull-off
h=hammer-on




Intro:

  A                C#m            D
e----------5-5-5-----------4-4-4----------7-7---|
b---------5--5-5----------5--5-5---------7--7-7-|
g--------6-----6---6-6---6-----6--7-7---7-----7-|
d-7-7---7------7---6-6--6------6--7-7--7------7-|
a-7-7--7-------7---4-4-4-------4--5-5-5-------5-|
e-5-5-5--------5--------------------------------|

  E
e---------9-9----|
b--------9--9-9--|
g-9-9---9-----9--|
d-9-9--9------9--|
a-7-7-7-------7--|
e----------------| Repeat as needed


Verse:


  A                C#m            D
e----------5-5-5-----------4-4-4----------7-7---|
b---------5--5-5----------5--5-5---------7--7-7-|
g--------6-----6---6-6---6-----6--7-7---7-----7-|
d-7-7---7------7---6-6--6------6--7-7--7------7-|
a-7-7--7-------7---4-4-4-------4--5-5-5-------5-|
e-5-5-5--------5--------------------------------|

  E
e---------9-9----|
b--------9--9-9--|
g-9-9---9-----9--|
d-9-9--9------9--|
a-7-7-7-------7--|
e----------------| Repeat as needed


Chorus:
        C# - D#
  D#m              E
e---6---6---6---6-----------------------------|
b---7---7---7---7---------9-9-----------9-9---|
g---8---8---8---8--9-9---9-------9-9---9------|
d---8---8---8---8--9-9--9--------9-9--9-------|(x3)
a-6-6-6-6-6-6-6-6--7-7-7------7--7-7-7------7-|
e---------------------------------------------|

  C#                   F#
e---9----9----9----9------------------------|
b---9----9----9----9---11-11-11-11-11-11-11-|
g---8----8----8----8---11-11-11-11-11-11-11-|
d---10---10---10---10--11-11-11-11-11-11-11-|
a---10---10---10---10--9--9--9--9--9--9--9--|
e-9-9--9-9--9-9--9-9------------------------|

Solo: *up to 1:14*

e-------------------------:---------------------------|
b-7h9p7-7h9p7-7p9h7-7h9p7-:---------------------------|
g-------------------------:--8h9p8-8h9p8-8h9p9-8h9p8--|
d-------------------------:---------------------------|
a-------------------------:---------------------------|
e-------------------------:---------------------------|

e-----------------:-------------|
b-----------------:-------------|
g-8h9-9-9-9-9-9-9-:-------------|
d-----------------:--11-9-8-----|(repeat all
a-----------------:---------11--|  again)
e-----------------:-------------|

e-------------------------------------|
b-------------------------------------|
g-9~-7-7-9~-7-7-9~-7-7-9~-7-7-9~ ect.-|
d-------------------------------------|
a-------------------------------------|
e-------------------------------------|

*its something like this,its too fast to make out*
e-7-10-7-9-7-------------------|
b-----------10-7-9-7-----------|
g--------------------9-8-7-----|
d--------------------------9p7-|
a------------------------------|
e------------------------------|


e----------------------7h8h9h10-10-|
b-------------7h8h9h10-------------|
g-------7h8p9----------------------|
d-7h8h9----------------------------|
a----------------------------------|
e----------------------------------|

e-12~-12~12~12-10-12-10-------------------------|
b-----------------------12p11p10-12~-10---------|
g---------------------------------------12-10-11|
d-----------------------------------------------|
a-----------------------------------------------|
e-----------------------------------------------|
Thats all I got so far.



Chorus

Verse(Key Change):


   B               D#m            E
e----------7-7-7-----------6-6-6----------9-9---|
b---------7--7-7----------7--7-7---------9--9-9-|
g--------8-----8---8-8---8-----8--9-9---9-----9-|
d-9-9---9------9---8-8--8------8--9-9--9------9-|
a-9-9--9-------9---6-6-6-------6--7-7-7-------7-|
e-7-7-7--------7--------------------------------|

  F#
e--------------11-11----|
b------------11---11-11-|
g-11-11----11--------11-|
d-11-11--11----------11-|
a-9--9--9------------9--|
e-----------------------| Repeat as needed



Outro:

   B               D#m            E
e----------7-7-7-----------6-6-6----------9-9---|
b---------7--7-7----------7--7-7---------9--9-9-|
g--------8-----8---8-8---8-----8--9-9---9-----9-|
d-9-9---9------9---8-8--8------8--9-9--9------9-|
a-9-9--9-------9---6-6-6-------6--7-7-7-------7-|
e-7-7-7--------7--------------------------------|


  F#  E D#m C#  B
e--------6--9---7---------------|
b-11--9--7--9---7---------------|
g-11--9--8--10--8---------------|
d-11--9--8--11--9---------------|
a-9---7--6--11--9---------------|
e-----------9---7-------------7-|


Tabbed By Michael Fryar,manumick20@yahoo.com
icq-67053832     
Добавлено: 19.11.2013
Другие материалы по этой песне:
  • Аккорды и текст

Страница создана 11.03.2012
http://primanota.ru/the-living-end/so-lonely-chords.htm
Привет, Гость.
Предлагаем пройти революционный курс по гитаре.
Подарок от PrimaNota.Ru, забирай!