PrimaNota.ru - самый крупный в мире бесплатный архив песенных текстов, аккордов, табулатур и нот


The Living End - Short Notice - текст песни, таба, видео

Регистрация Запомнить меня
Войти через:  Facebook Google Twitter Vk Yandex Mail.ru

The Living End - Short Notice - текст песни, таба, видео

Печатать
Просмотров: 108
This song is off of the Modern ARTillery Album....
Its kind of a strange song.... I dont really like this song that much....but I just 
out how to play it one day....

----Short Notice---
Tabbed by Moonpie/Mikey B

Verse 1:

"I said I wanna see you
I really meant I wanna leave you
I said I wanna touch you
I really meant I wanna punch you"

e-----------------------------------|
b-----------------------------------|
g---------------------6--6--6--6----|
d--7------6--6--6--6--6--6--6--6----|
a--7------6--6--6--6--4--4--4--4----|
e--5------4--4--4--4----------------|
          pm......................
I said I wanna kiss you
I'm never gonna miss you

Pre Chorus:

e-------------------------------------------------------------------------------|
b-------------------------------------------------------------------------------|
g----------------------------2--4------------------4-4-4--x-x--x-x--x-x--x-x-x--|
d-4--------------------------2--4--4-4-4-4-4-4-4-4-4-4-4--x-x--x-x--x-x--x-x-x--|
a-4--4-4-4-4-4-4-4-4-4-4-4-4-0--2--2-2-2-2-2-2-2-2-2-2-2--x-x--x-x--x-x--x-x-x--|
e-2--2-2-2-2-2-2-2-2-2-2-2-2------------------------------x-x--x-x--x-x--x-x-x--|
      pm.....................        pm.............
"If you had a clue you would never stay
If I told the truth I would have to say
We're going round, round, round"


Chorus:

e-------------------5-5-5-5-5-5-5-5----|
b-------------------5-5-5-5-5-5-5-5----|
g--9-9-9-9-9-9-9-9--6-6-6-6-6-6-6-6----|
d--9-9-9-9-9-9-9-9--7-7-7-7-7-7-7-7----| x2
a--7-7-7-7-7-7-7-7--7-7-7-7-7-7-7-7----|
e--0-0-0-0-0-0-0-0--5-5-5-5-5-5-5-5----|
"Short notice – and now it's time to go
Misguided - shot down when you didn't know"

e-----------------------------------------------------------------|
b-----------------------------------------------------------------|
g--9-9-9-9-9-9-9-9------------------------------------------------|
d--9-9-9-9-9-9-9-9--7------8------9--9-9-9-9-9-9-9-9-9-9-9-9-9-9--|
a--7-7-7-7-7-7-7-7--7--9\--8--9\--9--9-9-9-9-9-9-9-9-9-9-9-9-9-9--|
e--0-0-0-0-0-0-0-0--5--9\--6--9\--7--7-7-7-7-7-7-7-7-7-7-7-7-7-7--|
"Short notice – and now it's time to go"


Verse 2:

e------5--5----------5--5-5-5--------7--7----------7--7-7-7----|
b------5--5----------5--5-5-5--------9--9----------9--9-9-9----|
g------6--6----------6--6-6-6--------9--9----------9--9-9-9----|
d------7--7----------7--7-7-7----9-9-9--9--9-9-9-9-9--9-9-9----|
a--7-7-7--7--7-7-7-7-7--7-7-7----7-7-7--7--7-7-7-7-7--7-7-7----|
e--5-5-5--5--5-5-5-5-5--5-5-5----------------------------------|
   pm.       .......             ...       .......
"I said I wanna feel you
I really meant I wanna kill you
I said I couldn't refuse you
I really meant I should've used you"

e-----------------------------------|
b-----------------------------------|
g---------------------6--6--6--6----|
d--7------6--6--6--6--6--6--6--6----|
a--7------6--6--6--6--4--4--4--4----|
e--5------4--4--4--4----------------|
          pm......................
"I said, I wanna love you
I really am above you"


Pre Chorus

Chorus

Solo: Rythem guitar plays:
      E, A, E, B,
      E, A, D, B.

e----------------4/5-5-5-5-5-5-------------------------------------|
b-----------4/5--4/5-5-5-5-5-5-----------4/5-----------------------|
g----0h1----3/4--1/2-2-2-2-2-2----0h1----3/4-----------------------|
d----0h2--------------------------0h2---------7/9-9-9-9-9-9-9-9----|
a---------0----------------------------0------7/9-9-9-9-9-9-9-9----|
e--0----------------------------0-------------5/7-7-7-7-7-7-7-7----|

e----------------4\5-5-5-5-5-5----------------------------------------------------|
b-----------4/5--4\5-5-5-5-5-5--9-7-7-7-7-7-7-7----4-4-4-4-4-4-4-4-4-4-4-4-4-4-4--|
g----0h1----3/4--1\2-2-2-2-2-2--9-7-7-7-7-7-7-7--2-4-4-4-4-4-4-4-4-4-4-4-4-4-4-4--|
d----0h2------------------------9-7-7-7-7-7-7-7--2-4-4-4-4-4-4-4-4-4-4-4-4-4-4-4--|
a---------0---------------------7-5-5-5-5-5-5-5--0-2-2-2-2-2-2-2-2-2-2-2-2-2-2-2--|
e--0------------------------------------------------------------------------------|


Bridge:

e--------------------------------------------------------------------------------------|
b--------------------------------------------------------------------------------------|
g--2-2-2-2-----------------------2-2-2-2--------------------------------2-2-2-2--------|
d--2-2-2-2--(x4)--2-2-2-2--(x4)--2-2-2-2--(x4)--2-2-2-2--(x3)--4-4-6-6--2-2-2-2--------|
a--0-0-0-0--------2-2-2-2--------0-0-0-0--------2-2-2-2--------4-4-6-6--0-0-0-0--(x4)--|
e-----------------0-0-0-0-----------------------0-0-0-0--------2-2-4-4-----------------|
"I said I wanna see you
I really meant I wanna leave you
I said I wanna touch you
I really meant I wanna punch you
I said I wanna kiss you"

e-----------------------------------|
b-----------------------------------|
g--1-1------------------------------|
d------4-4-2-2-1-1------------------|
a------------------4-4-2-2-1-1------|
e------------------------------4-4--|
"I'm never gonna miss you"


Pre Chorus:

e-----------------------------------|
b-----------------------------------|
g-----------------------------------|
d--4---------------------------7----|
a--4--4-4-4-4-4-4-4-4-4-4-4-4--7----|
e--2--2-2-2-2-2-2-2-2-2-2-2-2--5----|
      pm.....................
"If you had a clue you would never stay"

e-------------------------------------------------------------------------------|
b-------------------------------------------------------------------------------|
g----------------------------2--4------------------4-4-4--x-x--x-x--x-x--x-x-x--|
d-4--------------------------2--4--4-4-4-4-4-4-4-4-4-4-4--x-x--x-x--x-x--x-x-x--|
a-4--4-4-4-4-4-4-4-4-4-4-4-4-0--2--2-2-2-2-2-2-2-2-2-2-2--x-x--x-x--x-x--x-x-x--|
e-2--2-2-2-2-2-2-2-2-2-2-2-2------------------------------x-x--x-x--x-x--x-x-x--|
      pm.....................        pm.............
"If I told the truth I would have to say
But there's only one thing that's left to say,
We're going round, round, round"


Last Chorus:

e-------------------5-5-5-5-5-5-5-5----|
b-------------------5-5-5-5-5-5-5-5----|
g--9-9-9-9-9-9-9-9--6-6-6-6-6-6-6-6----|
d--9-9-9-9-9-9-9-9--7-7-7-7-7-7-7-7----| x2
a--7-7-7-7-7-7-7-7--7-7-7-7-7-7-7-7----|
e--0-0-0-0-0-0-0-0--5-5-5-5-5-5-5-5----|
"Short notice – and now it's time to go
Misguided - shot down when you didn't know"

e-----------------------------------------------------------------|
b-----------------------------------------------------------------|
g--9-9-9-9-9-9-9-9------------------------------------------------|
d--9-9-9-9-9-9-9-9--7------8------9--9-9-9-9-9-9-9-9-9-9-9-9-9-9--|
a--7-7-7-7-7-7-7-7--7--9\--8--9\--9--9-9-9-9-9-9-9-9-9-9-9-9-9-9--|
e--0-0-0-0-0-0-0-0--5--9\--6--9\--7--7-7-7-7-7-7-7-7-7-7-7-7-7-7--|
"Short notice – and now it's time to go"

e----------------5-5-5-5-5-5-5-5----|
b----------------5-5-5-5-5-5-5-5----|
g--9-9-----------6-6-6-6-6-6-6-6----|
d--9-9----9-9-8--7-7-7-7-7-7-7-7----|
a--7-7----9-9-8--7-7-7-7-7-7-7-7----|
e--0-0----7-7-6--5-5-5-5-5-5-5-5----|
"Short notice – and now it's time to go"

e-------------------5-5-5-5-5-5-5-5----|
b-------------------5-5-5-5-5-5-5-5----|
g--9-9-9-9-9-9-9-9--6-6-6-6-6-6-6-6----|
d--9-9-9-9-9-9-9-9--7-7-7-7-7-7-7-7----| x2
a--7-7-7-7-7-7-7-7--7-7-7-7-7-7-7-7----|
e--0-0-0-0-0-0-0-0--5-5-5-5-5-5-5-5----|
"Misguided - shot down when you didn't know"

e----------------------------------------------------------------------|
b----------------------------------------------------------------------|
g--9-9-9-9-9-9-9-9-----------------------------------------------------|
d--9-9-9-9-9-9-9-9--7------8------9--9-9-9-9-9-9-9-9-9-9-9-9-9-9--etc--|
a--7-7-7-7-7-7-7-7--7--9\--8--9\--9--9-9-9-9-9-9-9-9-9-9-9-9-9-9-------|
e--0-0-0-0-0-0-0-0--5--9\--6--9\--7--7-7-7-7-7-7-7-7-7-7-7-7-7-7-------|
"Short notice – and now it's time to go"


Ending:

e-------|
b-------|
g--9-9--|
d--9-9--|
a--7-7--|
e--0-0--|

This is actually my 4th tab I've done so far so if u like it or u'd like to give me some 
back... could u please leave a comment? Cheers!

Tabbed by Mikey.B
Добавлено: 21.02.2012
Другие материалы по этой песне:
  • Аккорды и текст

Страница создана 21.02.2012
http://primanota.ru/the-living-end/short-notice-chords.htm
Привет, Гость.
Предлагаем пройти революционный курс по гитаре.
Подарок от PrimaNota.Ru, забирай!