PrimaNota.ru - самый крупный в мире бесплатный архив песенных текстов, аккордов, табулатур и нот


The Living End - Rising Sun Cover - таба, видео

Регистрация Запомнить меня
Войти через:  Facebook Google Twitter Vk Yandex Mail.ru

The Living End - Rising Sun Cover - таба, видео

Печатать
Просмотров: 86
Song: Rising Sun (Cold Chisel cover)                                  
Band: The Living End 

FXs: Use Distortion, delay and whammy bar.

Intro:

e---15--15\----15--15\-------------15--15\----15--15\---------|
B---15--15\----15--15\------D------15--15\----15--15\---------|
G---**--**\----**--**\------R------**--**\----**--**\---------|
D---**--**\----**--**\------U------**--**\----**--**\---------|
A---14--14\----14--14\------M------14--14\----14--14\---------|
E---15--15\----15--15\------S------15--15\----15--15\---------|
 

e-----------------------------------------/77--5--3--2--------|
B--6/8-8-8-8-8--6/8-8-8-8-8--6/8-8-8-8-8--/88--6--5--4--------|
G--5/7-7-7-7-7--5/7-7-7-7-7--5/7-7-7-7-7--/77--5--3--2--------|
D-------------------------------------------------------------|
A-------------------------------------------------------------|
E-------------------------------------------------------------|

Verse: 
e-----------------------------------3-------------------------|
B-----------------------------------3-------------------------|
G-----------------------------------4-------------------------|
D--5-5-5-5-5-5-5-5-5-5-5-5-5-5-5-5--5--5-5-5-5-5--3-----5-----|
A--5-5-5-5-5-5-5-5-5-5-5-5-5-5-5-5--5--5-5-5-5-5--5-7-5-5-----|
E--3-3-6-6-3-3-6-6-3-3-6-6-3-3-6-6--3--6-6-3-3-6--3-3-3-6-----|
                                                                                     
Singing Starts:
e-------------------------------------|
B-------------------------------------|
G-------------------------------------|
D--5-5-5-5-5-5-5-5-5-5-5-5-5-5-5-5----|   X 3
A--5-5-5-5-5-5-5-5-5-5-5-5-5-5-5-5----|
E--3-3-6-6-3-3-6-6-3-3-6-6-3-3-6-6----|

e-------------------------------------|
B-------------------------------------|
G--7-7-7-7-7-7-7-7-7-7-7-7-7-7-7-7----|
D--7-7-7-7-7-7-7-7-7-7-7-7-7-7-7-7----|
A--5-5-8-8-5-5-8-8-5-5-8-8-5-5-8-8----|
E-------------------------------------|

e-------------------------------------|
B-------------------------------------|
G-------------------------------------|
D--5-5-5-5-5-5-5-5-5-5-5-5-5-5-5-5----|
A--5-5-5-5-5-5-5-5-5-5-5-5-5-5-5-5----|
E--3-3-6-6-3-3-6-6-3-3-6-6-3-3-6-6----|

e-------------------------------------|
B-------------------------------------|
G--5-5-5-5-5-5-5-5-5-5-5-5-5-5-5-5----|
D--5-5-5-5-5-5-5-5-5-5-5-5-5-5-5-5----|
A--3-3-6-6-3-3-6-6-3-3-6-6-3-3-6-6----|
E-------------------------------------|

e-------------------------------------|
B-------------------------------------|
G------------------7-7-7-7-7-7-7-7----|
D--5-5-5-5-5-5-5-5-7-7-7-7-7-7-7-7----| 
A--5-5-5-5-5-5-5-5-5-5-8-8-5-5-8-8----|
E--3-3-6-6-3-3-6-6--------------------|


e-----------------|                                                   
B-----------------|
G-----------------|
D--5-5-5-5-5-5-5-5|
A--5-5-5-5-5-5-5-5|
E--3-3-6-6-3-3-6-6|

CHORUS
e-------------|--------------------------|
B-------------|--------------------------|
G--------3--4-|--6--6--6--6--6--6--6--6--|
D--5--7--3--4-|--6--6--6--6--6--6--6--6--|
A--5--7—-1--2-|--3—-3—-3—-3—-3—-3—-3—-3--|
E--3--5-------|--------------------------|
                         RISING SUN JUST...

e---------------------------------------3----------------|
B---------------------------------------3----------------|
G---------------------------------------4----------------|
D--5-5-5-5-5-5-5-5-5-5-5-5-5-5-5-5-55---5----------------|
A--5-5-5-5-5-5-5-5-5-5-5-5-5-5-5-5-55---5----------------|
E--3-3-6-6-3-3-6-6-3-3-6-6-3-3-6-6-33---3----------------|   X 2
AWAY!

e--------------------------|
B--------------------------|
G--6--6--6--6--6--6--6--6--|
D--6--6--6--6--6--6--6--6--|
A--3—-3—-3—-3—-3—-3—-3—-3--|
E--------------------------|
 RISING SUN JUST STOLE MY GIRL

e--3------------0-0-0-0--2-2-2-2---3-3---------------------|
B--3------------1-1-1-1—-3-3-3-3---0-0---------------------|
G--4------------0-0-0-0--2-2-2-2---0-0—3b4p2p0-0-----------|
D--5------------2-2-2-2—-0-0-0-0-0-0-0---------------------|
A--5------------3-3-3-3----------2-2-2---------------------|
E--3---3-2-3-4-0-----------------3-3-3---------------------|
     GONNA CATCH A PLANE…

VERSE (From Singing)

CHORUS

BRIDGE (Not tabbed)

BASS SOLO + GUITAR

e-------------------------------------------------|
B-------------------------------------------------|
G-------------------------------------------------|
D--------  X6 —---3h4-3h4-3h4-3h4-----------------|
A—-1h2-1h2-------5---5---5---5----1h2-1h2-1h2-1h2-|
E—3---3--------------------------3---3---3---3----|

E-------------------------------------------------|
B---------------------------------------------1/9-|
G---------------------------------------------1/9-|
D—-1h2-1h2-1h2-1h2-----------3h4-3h4----------1/9-|
A—3---3---3---3----1h2-1h2--5---5----1h2-1h2------|
E-----------------3---3-------------3---3---------|







GUITAR SOLO                                                           

Chris uses his fingers for picking the high notes.
e-----12-------10-------12--------10~----7-----5----7-----5~----|
B--------11----------------11-----11~------6----------6---6~----|
G-----------12----------------12--12~--------7----------7-7~----|
D--10----------------10----------------5----------5-------------|
A---------------------------------------------------------------|
E---------------------------------------------------------------|

e-------12-------10-------12--------10~-----------12------------|
B----------11----------------11-----11~--12-12^14>>>>>(v12)-10~-|
G--/12--------12----------------12--12~-------------------------|
D--/10---------------10-----------------------------------------|
A---------------------------------------------------------------|
E---------------------------------------------------------------|




e----------------------------------------------------------------------|
B------10----------------6-----10-6--6--6--6--6--6--6--6---------------|
G-9^11>>>>>(v9)-7~---5^7---(7)>>>(7)(7)(7)(7)(7)(7)(7)(7)--------------|
D----------------------------------------------------------------------|
A----------------------------------------------------------------------|
E----------------------------------------------------------------------|


e----------------------------------------------------------------------|
B-(6)-----0------------------------------------------------------------|
G-(7)r5\3p0-h3-----3p2p0-------3p2p0-------3p2p0---0-------------------|
D------------------------3p2p0-------3p2p0-------3---------------------|
A----------------------------------------------------------------------|
E----------------------------------------------------------------------|

P=Finger Pick 
     
      P      P      P       P 
e-----10-----11-----12------13-----------------------------------------|
B-----------------------------------15--17----------------------12-----|
G-6/7----7/8----8/9----9/10-----16----------16—14p12--------12--12-----|
D----------------------------------------------------14p12------12-----|
A----------------------------------------------------------------------|
E----------------------------------------------------------------------|

e-------------------------------------15-17-15------18-18-18-18/-------|
B--------------------------15-16-17--------------17-17-17-17-1/--------|
G--16-14------16\------17----------------------------------------------|
D--17-----17-----------------------------------------------------------|
A----------------------------------------------------------------------|
E----------------------------------------------------------------------|

e-3^-6-3---------------------------------------------------------------|
B--------6p3---3-------------------------------------------------------|
G------------5---5p3--5p3---3------------------------------------------|
D-------------------------5---5p3-5-5-5~~------------------------------|
A----------------------------------------------------------------------|
E----------------------------------------------------------------------|

CHORUS
e-------------|--------------------------|
B-------------|--------------------------|
G--------3--4-|--6--6--6--6--6--6--6--6--|
D--5--7--3--4-|--6--6--6--6--6--6--6--6--|
A--5--7—-1--2-|--3—-3—-3—-3—-3—-3—-3—-3--|
E--3--5-------|--------------------------|
                         RISING SUN JUST...

e---------------------------------------3----------------|            
B---------------------------------------3----------------|
G---------------------------------------4----------------|
D--5-5-5-5-5-5-5-5-5-5-5-5-5-5-5-5-55---5----------------|
A--5-5-5-5-5-5-5-5-5-5-5-5-5-5-5-5-55---5----------------|
E--3-3-6-6-3-3-6-6-3-3-6-6-3-3-6-6-33---3----------------| 
AWAY!

e--------------------------|
B--------------------------|
G--6--6--6--6--6--6--6--6--|
D--6—-6-—6—-6--6--6--6--6--|
A--3—-3—-3—-3—-3—-3—-3—-3--|
E--------------------------|
    RISING SUN JUST...

e----15--15\----15--15\--|
B----15--15\----15--15\--|
G----**--**\----**--**\--|
D----**--**\----**--**\--|
A----14--14\----14--14\--|
E----15--15\----15--15\--|
AWAY!

e--------------------------|
B--------------------------|
G--6--6--6--6--6--6--6--6--|
D--6--6--6--6--6--6--6--6--|
A--3—-3—-3—-3—-3—-3—-3—-3--|
E--------------------------|
 RISING SUN JUST STOLE MY GIRL

e--3------------0-0-0-0--2-2-2-2-------------------|
B--3------------1-1-1-1—-3-3-3-3-------------------|
G--4------------0-0-0-0--2-2-2-2-------------------|
D--5------------2-2-2-2—-0-0-0-0—-5-5-5-5-5-5-5-5--|
A--5------------3-3-3-3-----------5-5-5-5-5-5-5-5--|
E--3---3-2-3-4-0------------------3-3-6-6-3-3-6-6--|
     GONNA CATCH A PLANE…

e-------------|--------------------------|
B-------------|--------------------------|
G--------3--4-|--6--6--6--6--6--6--6--6--|
D--5--7--3--4-|--6--6--6--6--6--6--6--6--|
A--5--7—-1--2-|--3—-3—-3—-3—-3—-3—-3—-3--|
E--3--5-------|--------------------------|
WELL                     RISING SUN JUST...

e----15--15\----15--15\--|
B----15--15\----15--15\--|
G----**--**\----**--**\--|
D----**--**\----**--**\--|
A----14--14\----14--14\--|
E----15--15\----15--15\--|
AWAY!

e------------------------------------|
B------------------------------------|
G—-5-5-5-5-5-5-5--3-2-1-0------------|
D—-5-5-5-5-5-5-5—---------5-4-3-2----|
A—-3-3-3-3-3-3-3---------------------|
E------------------------------------|
RISING SUN JUST…
 




e--------------------------|                                          
B--------------------------|
G--6--6--6--6--6--6--6--6--|
D--6--6--6--6--6--6--6--6--|
A--3—-3—-3—-3—-3—-3—-3—-3--|
E--------------------------|
 RISING SUN JUST STOLE MY GIRL

e--3------------0-0-0-0--2-2-2-2---3-3---------------------|
B--3-----D------1-1-1-1—-3-3-3-3---0-0---------------------|
G--4-----R------0-0-0-0--2-2-2-2---0-0—3b4p2p0-0-----------|
D--5-----U------2-2-2-2—-0-0-0-0-0-0-0---------------------|
A--5-----M------3-3-3-3----------2-2-2---------------------|
E--3-----S-----------------------3-3-3---------------------|
  GONNA CATCH A PLANE…

e-—0-0-0-0—-2-2-2-2--3~-3~3~--0-0-0-0—-2-2-2-2-------|
B—-1-1-1-1—-3-3-3-3--3~-3~3~--1-1-1-1—-3-3-3-3-------|
G—-0-0-0-0—-2-2-2-2--4~-4~4~--0-0-0-0—-2-2-2-2-------|
D—-2-2-2-2—-0-0-0-0--5~-5~5~--2-2-2-2—-0-0-0-0-------|
A—-3-3-3-3-----------5~-5~5~--3-3-3-3----------------|
E--------------------3~-3~3~-------------------------|
SAID THE RISING SUN…

e----------------------------------/--15-15\---15-15\--|
B----------------------------------/--15-15\---15-15\--|
G—10p9-9p8-8p7-7p6-6p5-5p4-4p3-3p2-/--**-**\---**-**\--|
D----------------------------------/--**-**\---**-**\--|
A----------------------------------/--14-14\---14-14\--|
E----------------------------------/--15-15\---15-15\--|

e—-3-3-3-3-3-3-3-3-3-3-3-3-3-//------------------------------------------|
B—-3-3-3-3-3-3-3-3-3-3-3-3-3-//-12-12-12-12-12-12-12-12-12-12-12-12-12-12|
G—-4-4-4-4-4-4-4-4-4-4-4-4-4-//-12-12-12-12-12-12-12-12-12-12-12-12-12-12|
D—-5-5-5-5-5-5-5-5-5-5-5-5-5-//-12-12-12-12-12-12-12-12-12-12-12-12-12-12|
A—-5-5-5-5-5-5-5-5-5-5-5-5-5-//-10-10-10-10-10-10-10-10-10-10-10-10-10-10|
E—-3-3-3-3-3-3-3-3-3-3-3-3-3-//------------------------------------------| 

e-----------------------3~~--3--|
B-----------------------3~~--3--|
G—3p2p0-----3p2p0-------4~~--0--|
D------3p2p0-----3p2p0--5~~--0--|
A-----------------------5~~--2--|
E-----------------------3~~--3--|

That's all folks…
Добавлено: 09.07.2012
Другие материалы по этой песне:
  • Аккорды и текст

Страница создана 09.07.2012
http://primanota.ru/the-living-end/rising-sun-cover-chords.htm
Привет, Гость.
Предлагаем пройти революционный курс по гитаре.
Подарок от PrimaNota.Ru, забирай!