PrimaNota.ru - самый крупный в мире бесплатный архив песенных текстов, аккордов, табулатур и нот


The Living End - Rip It Up - таба, видео

Регистрация Запомнить меня
Войти через:  Facebook Google Twitter Vk Yandex Mail.ru

The Living End - Rip It Up - таба, видео

Печатать
Просмотров: 124
Авторы: Robert "Bumps" Blackwell, John Marascalco

----------------------------------------------------------------------------
                         The Living End - Rip it up
----------------------------------------------------------------------------
Tabbed by: shorty_rox_06
Email: shorty_rox_06@hotmail.com

Tuning: normal e|A|D|G|B|E|

Rip it up by The Living End
----------------------------------
Album: Under the covers EP
Track no: 4
----------------------------------
Tabbed by: Philip Daly
Email: shorty_rox_06@hotmail.com
----------------------------------
Key:

| /  slide up
| \  slide down
| h  hammer-on
| p  pull-off
| ~  vibrato
| +  harmonic
| x  Mute note

This song is a cover from Bill Haley's "Rip It Up" so it has an olden day sound to it. 
here we go

Drum intro…
Verse 1:
e|--------------------------------------|
B|-----------------------------------6~-|
G|-----------------------------------7~-|
D|--5-5-5-7----5-5-5-7----5-5-5-7----7~-|
A|--3-5-5-7----5-5-5-7----5-5-5-7----5~-|
E|--3-3-3-5----3-3-3-5----3-3-3-5-------|

Chorus:
e|--------------------------------------------------------|
B|--------------------------------------------------------|
G|--------------------------------------------------------|
D|------------3-4-5-4-3-3---------------------------------|
A|--0-0-3-4-5-------------3h5------------3-4-5-4-3-3------|
E|-----------------------------0-0-3-4-5-------------3h5--| x2

e|----------------|
B|----------------|
G|--7-5-------5-7-|
D|--7-5-7-7-7-5-7-|
A|--5-3-7-5-7-3-5-|
E|------5-3-5-----|

Verse 2
e|--------------------------------------|
B|-----------------------------------6~-|
G|-----------------------------------7~-|
D|--5-5-5-7----5-5-5-7----5-5-5-7----7~-|
A|--3-5-5-7----5-5-5-7----5-5-5-7----5~-|
E|--3-3-3-5----3-3-3-5----3-3-3-5-------|

Chorus:
e|--------------------------------------------------------|
B|--------------------------------------------------------|
G|--------------------------------------------------------|
D|------------3-4-5-4-3-3---------------------------------|
A|--0-0-3-4-5-------------3h5------------3-4-5-4-3-3------|
E|-----------------------------0-0-3-4-5-------------3h5--| x2

I haven't figured out the solo yet. If any1 can tab it. Please add it. Because It's too 
for me to figure out and I want to try to learn it.

3rd Verse:
e|-----------------------------------------------------------------------------------------|
B|-----------------------------------------------------------------------------------------|
G|-----------------------------------------------------------------------------------------|
D|--------5-5-5-7-7-7-7-7-7-7-7-8-8-8-8-8-8-8-8-8-9-9-9-9-9-9-9-9-10-10-10-10-10-10-10-10--|
A|--------5-5-5-7-7-7-7-7-7-7-7-8-8-8-8-8-8-8-8-8-9-9-9-9-9-9-9-9-10-10-10-10-10-10-10-10--|
E|--------3-3-3-5-5-5-5-5-5-5-5-6-6-6-6-6-6-6-6-6-7-7-7-7-7-7-7-7-8--8--8--8--8--8--8--8---|
Pm                . . . . . . . . . . . . . . . . . . . . . . . . .  .  .  .  .  .  .  .

Chorus:
e|----------------------------------------------------------|
B|-------------------------------------------------------6~-|
G|-------------------------------------------------------7~-|
D|------------3-4-5-4-3-3--------------------------------7~-|
A|--0-0-3-4-5-------------3h5------------3-4-5-4-3-3-----5~-|
E|-----------------------------0-0-3-4-5-------------3h5----| x2

e|-----------------|
B|-----------------|
G|--7-5-------5-7~-|
D|--7-5-7-7-7-5-7~-|
A|--5-3-7-5-7-3-5~-|
E|------5-3-5------|

Outro:
e|----------------------------------------|
B|----------------------------------------|
G|----------------------------------------|
D|----5-3~------3h5hp3---------------7///-|
A|--3-------3~---------5-3-----------7///-|
E|-------------------------5-3~------5///-|

============================================================================
Добавлено: 26.04.2012
Другие материалы по этой песне:
  • Аккорды и текст

Страница создана 26.04.2012
http://primanota.ru/the-living-end/rip-it-up-chords.htm
Привет, Гость.
Предлагаем пройти революционный курс по гитаре.
Подарок от PrimaNota.Ru, забирай!