PrimaNota.ru - самый крупный в мире бесплатный архив песенных текстов, аккордов, табулатур и нот


The Living End - Revoltion Regained - аккорды и текст, таба, видео

Регистрация Запомнить меня
Войти через:  Facebook Google Twitter Vk Yandex Mail.ru

The Living End - Revoltion Regained - аккорды и текст, таба, видео

Печатать
Просмотров: 68
Revoltion Regained
The Living End
                    -TBE lIVING enD-
                   Revolution Regained
                Tabbed By Mick Fryar-manumiick20@yahoo.com
 

^=full bend and bring back down(let ring when brought down)
h=hammer on
p=pull off
~=vibrado

Intro:
           Am            Dm            Am
e-----------0-----0--------:--1-1-1-1-1-1-1--:-----------0-----0-------:-|
b--------1-----4-----1-----:--3-3-3-1-3-3-3--:--------1-----4-----1----:-|
g-----2-----------------2--:--2-2-2-2-2-2-2--:-----2-----------------2-:-|
d--------------------------:--0-0-0-0-0-0-0--:-------------------------:-|
a--0-----------------------:-----------------:--0----------------------:-|
e--------------------------:-----------------:-------------------------:-|

                       Am            Dm          C G C D E
e-----0------------------------:-----------0-----0--------:-1-1-1-1-1-1-1-:------------|
b--------3--2--0h1p0-----------:--------1-----4-----1-----:-3-3-3-1-3-3-3-:------------|
g---------------------2--------:-----2-----------------2--:-2-2-2-2-2-2-2-:-5---5-7-9--|
d------------------------3--2--:--------------------------:-0-0-0-0-0-0-0-:-5-5-5-7-9--|
a------------------------------:--0-----------------------:---------------:-3-5-3-5-7--|
e--0---------------------------:--------------------------:---------------:---3--------|

Verse:
   A         A G F G A                 C
e------------------------------------------------|     -----|
b------------------------------------------------|     -----|
g-2-2-2-2-2-2-2-2-----2-------2---2-2-2-2-2-2----|     -5-5-|
d-2-2-2-2-2-2-2-2ect--2-5-3-5-2---2-2-2-2-2-2ect-|(x2) -5-5-|
a-0-0-0-0-0-0-0-0-----0-5-3-5-0---0-0-0-0-0-0----|     -3-3-|
e--/palm muted---------3-1-3--------------------|     -----|
               |fill|

Chorus:

       C       G       A       G   F    G#  F    G#
e--------------3---------------3----------:---------|
b--------------3---------------3----------:---------|
g--5-5-5-5-5---4---------------4----------:---------|
d--5-5-5-5-5---5---7-7-7-7-7---5---3--3-6-:-3--3-6--|
a--3-3-3-3-3---5---7-7-7-7-7---5---3--3-6-:-3--3-6--|
e--------------3---5-5-5-5-5---3---1--1-4-:-1--1-4--|

Verse

Chorus (play first section twice,followed by the second section)

Followed by:

        C
e-----------------------------|
b-----------------------------|
g--5-5-5-5-5-5-5-5-5-5-5-5----|
d--5-5-5-5-5-5-5-5-5-5-5-5----|
a--3-3-3-3-3-3-3-3-3-3-3-3----|
e-----------------------------|


Intro (first 6 sections only)


Intro To Solo:

e-------------------------------------------------------------------|
b-------------------------------------------------------------------|
g-----------------4--------------------7----------------------6--7--|
d-----------4--6-----------------6--9-------------------6--9--------|
a--------6--------------------9-------------------6--8--------------|
e--4--7----------------7--10----------------4--7--------------------|


 Solo:
    D#
e-----------------------------------:------8-11-8h11-8-----:-|
b------------------11^--8--11--11^--:----9-------------9-8-:-|
g--10^-----8------------------------:--8-------------------:-|
d-------10---10-8-------------------:----------------------:-|
a-----------------------------------:----------------------:-|
e-----------------------------------:----------------------:-|


e-------10-13-11-10h11-10-------:------3-6-3h6p3--------4p3------------------------------:-|
b----11-------------------11----:----4-----------4----------4p3-???-too fast to work out-:-|
g-10-------------------------10-:--3---------------3-------------------------------------:-|
d-------------------------------:--------------------------------------------------------:-|
a-------------------------------:--------------------------------------------------------:-|
e-------------------------------:--------------------------------------------------------:-|


e-----6---------------------------------------:--------------------------|
b---8-6--8p6-4----6^-6-4----------------------:-4-4-4-4-4-4-4-4-4-4-4-4--|
g--------------5---------5-5--5--7-7^--7-5-7^-:-6^6^6^6^6^6^6^6^6^6^6^6^-|
d---------------------------------------------:--------------------------|
a-5-------------------------------------------:--------------------------|
e---------------------------------------------:--------------------------|


Chorus (play first section twice followed by second section)

Outro:
       A            A
e--------------------------:------------------------------------------------|
b--------------------------:------------------------------------------------|
g--------------------------:------------------------------------------------|
d-7-7--7-7--7-7--7-7--7-7--:-7-7-7-------7-7-7-------7-7-7-------7-7-7------|
a-7-7--7-7--7-7--7-7--7-7--:-7-7-7-------7-7-7-------7-7-7-------7-7-7------|
e-5-5--5-5--5-5--5-5--5-5--:-5-5-5-4~4~--5-5-5-4~4~--5-5-5-4~4~--5-5-5-4~4~-|

     Am
e---0------------0------------0---------------------------|
b-----1-----1------1-----1------1-----1-------------------|
g---------2------------2------------2-------------------4-|
d-------2------------2------------2---------------4--6----|
a-0------------0------------0------------------6----------|
e----------------------------------------4--7-------------|
Добавлено: 25.10.2013
Другие материалы по этой песне:
  • Аккорды и текст

Страница создана 15.07.2012
http://primanota.ru/the-living-end/revoltion-regained-chords.htm
Привет, Гость.
Предлагаем пройти революционный курс по гитаре.
Подарок от PrimaNota.Ru, забирай!