PrimaNota.ru - самый крупный в мире бесплатный архив песенных текстов, аккордов, табулатур и нот


The Living End - Raise The Alarm - текст песни, таба, видео

Регистрация Запомнить меня
Войти через:  Facebook Google Twitter Vk Yandex Mail.ru

The Living End - Raise The Alarm - текст песни, таба, видео

Печатать
Просмотров: 82
RAISE THE ALARM - THE LIVING END
tabbed by: Matt Heal
email: mattheal(at)gmail.com

for more tabs for The Living End check out http://tletabs.webs.com/index.htm
tuning: Drop D
key:
* - Palm Mute
^ - Bend
> - get lowder gradually

e|--5-5-5-5--3-3-3-3--5-5-5-5--3-3-3-3--5-5-5-5--3-3-3-3--5-5-5-5-5--0-0-0---|
b|--6-6-6-6--5-5-5-5--6-6-6-6--5-5-5-5--6-6-6-6--5-5-5-5--6-6-6-6-6--5-5-5---|
g|--7-7-7-7--6-6-6-6--7-7-7-7--6-6-6-6--7-7-7-7--6-6-6-6--7-7-7-7-7--5-5-5---|
d|--0-0-0-0--0-0-0-0--0-0-0-0--0-0-0-0--0-0-0-0--0-0-0-0--0-0-0-0-0--0-0-0---|
a|---------------------------------------------------------------------------|
D|---------------------------------------------------------------------------|
pm***************************************************************************  

e|--5-5-5-5--3-3-3-3--5-5-5-5--3-3-3-3--5-5-5-5--3-3-3-3--5-5-5-5-5-5-5------|
b|--6-6-6-6--5-5-5-5--6-6-6-6--5-5-5-5--6-6-6-6--5-5-5-5--6-6-6-6-6-6-6------|
g|--7-7-7-7--6-6-6-6--7-7-7-7--6-6-6-6--7-7-7-7--6-6-6-6--7-7-7-7-7-7-7------|
d|--0-0-0-0--0-0-0-0--0-0-0-0--0-0-0-0--0-0-0-0--0-0-0-0--0-0-0-0-0-0-0------|
a|---------------------------------------------------------------------------|
D|---------------------------------------------------------------------------|
pm****************************************************************************

e|--5-5-5-5--3-3-3-3--5-5-5-5--3-3-3-3--5-5-5-5--3-3-3-3--5-5-5-5-5-5-5------|
b|--6-6-6-6--5-5-5-5--6-6-6-6--5-5-5-5--6-6-6-6--5-5-5-5--6-6-6-6-6-6-6------|
g|--7-7-7-7--6-6-6-6--7-7-7-7--6-6-6-6--7-7-7-7--6-6-6-6--7-7-7-7-7-7-7------|
d|--0-0-0-0--0-0-0-0--0-0-0-0--0-0-0-0--0-0-0-0--0-0-0-0--0-0-0-0-0-0-0------|
a|--0-0-0-0--0-0-0-0--0-0-0-0--0-0-0-0--0-0-0-0--0-0-0-0--0-0-0-0-0-0-0-------|
D|---------------------------------------------------------------------------|

e|--5-5-5-5--3-3-3-3--5-5-5-5--3-3-3-3--5-5-5-5--3-3-3-3--5-5-5-5-5---------------|
b|--6-6-6-6--5-5-5-5--6-6-6-6--5-5-5-5--6-6-6-6--5-5-5-5--6-6-6-6-6---------------|
g|--7-7-7-7--6-6-6-6--7-7-7-7--6-6-6-6--7-7-7-7--6-6-6-6--7-7-7-7-7---------------|
d|--0-0-0-0--0-0-0-0--0-0-0-0--0-0-0-0--0-0-0-0--0-0-0-0--0-0-0-0-0---12/---------|
a|--0-0-0-0--0-0-0-0--0-0-0-0--0-0-0-0--0-0-0-0--0-0-0-0--0-0-0-0-0---12/---------|
D|--------------------------------------------------------------------12/---------|

pre verse
e|-0-0---0-0-0---0-0-0---0-0-0---0-0-0---0-0-0---0-0-0---0-0---------|
b|-1-1---1-1-1---1-1-1---1-1-1---1-1-1---1-1-1---1-1-1---1-1---------|
g|-2-2---2-2-2---2-2-2---2-2-2---2-2-2---2-2-2---2-2-2---2-2--2-0--0-|
d|-2-2---2-2-2---2-2-2---2-2-2---2-2-2---2-2-2---2-2-2---2-2------2--|
a|-0-0---0-0-0---0-0-0---0-0-0---0-0-0---0-0-0---0-0-0---0-0---------|
D|-------------------------------------------------------------------|
pm     *       *       *       *       *       *       *

Verse

e|-0-0---0-0-0---0-0-0---0-0-0---0-0-0---0-0-0---0-0-0---0-0-|
b|-1-1---1-1-1---1-1-1---1-1-1---1-1-1---1-1-1---1-1-1---1-1-|
g|-2-2---2-2-2---2-2-2---2-2-2---2-2-2---2-2-2---2-2-2---2-2-|
d|-2-2---2-2-2---2-2-2---2-2-2---2-2-2---2-2-2---2-2-2---2-2-|
a|-0-0---0-0-0---0-0-0---0-0-0---0-0-0---0-0-0---0-0-0---0-0-|
D|-----------------------------------------------------------|
pm     *       *       *       *       *       *       *

e|-----------------------------------------------------------|
b|-----------------------------------------------------------|
g|-5-5---5-5-5---5-5-5---5-5-5---5-5-5---5-5-5---5-5-5---5-5-|
d|-3-3---3-3-3---3-3-3---3-3-3---3-3-3---3-3-3---3-3-3---3-3-|
a|-3-3---3-3-3---3-3-3---3-3-3---3-3-3---3-3-3---3-3-3---3-3-|
D|-3-3---3-3-3---3-3-3---3-3-3---3-3-3---3-3-3---3-3-3---3-3-|
pm     *       *       *       *       *       *       *


e|0-0-0---0-0-0---0-0----------0-0---0-0-0---0-0-0---0-0-0---0-0-0---0-0-0---0-0-0---0-0--|
b|1-1-1---1-1-1---1-1----------1-1---1-1-1---1-1-1---1-1-1---1-1-1---1-1-1---1-1-1---1-1--|
g|2-2-2---2-2-2---2-2--2-0--0--2-2---2-2-2---2-2-2---2-2-2---2-2-2---2-2-2---2-2-2---2-2--|
d|2-2-2---2-2-2---2-2------2---2-2---2-2-2---2-2-2---2-2-2---2-2-2---2-2-2---2-2-2---2-2--|
a|0-0-0---0-0-0---0-0----------0-0---0-0-0---0-0-0---0-0-0---0-0-0---0-0-0---0-0-0---0-0--|
D|----------------------------------------------------------------------------------------|
pm     *       *                   *       *       *       *      *       *       *  

e|-----------------------------------------------------------|
b|-----------------------------------------------------------|
g|-5-5---5-5-5---5-5-5---5-5-5---5-5-5---5-5-5---5-5-5---5-5-|
d|-3-3---3-3-3---3-3-3---3-3-3---3-3-3---3-3-3---3-3-3---3-3-|
a|-3-3---3-3-3---3-3-3---3-3-3---3-3-3---3-3-3---3-3-3---3-3-|
D|-3-3---3-3-3---3-3-3---3-3-3---3-3-3---3-3-3---3-3-3---3-3-|
pm     *       *       *       *       *       *       *

e|-0-0---0-0-0---0-0-0-|
b|-1-1---1-1-1---1-1-1-|
g|-2-2---2-2-2---2-2-2-|
d|-2-2---2-2-2---2-2-2-|
a|-0-0---0-0-0---0-0-0-|
D|---------------------|
pm     *       *       

(i'd rather risk my fate...)
	 >		    >
e|---------------------------------------|
b|---------------------------------------|
g|--5----5-5-5-5-5-5---3----3-3-3-3-3----|
d|--5----5-5-5-5-5-5---3----3-3-3-3-3----|
a|--3----3-3-3-3-3-3---1----1-1-1-1-1----|
D|---------------------------------------|

Chorus
e|--5-5-5-5--3-3-3-3--5-5-5-5--3-3-3-3--5-5-5-5--3-3-3-3--5-5-5-5^---------------|
b|--6-6-6-6--5-5-5-5--6-6-6-6--5-5-5-5--6-6-6-6--5-5-5-5--6-6-6-6^---------------|
g|--7-7-7-7--6-6-6-6--7-7-7-7--6-6-6-6--7-7-7-7--6-6-6-6--7-7-7-7^---------------|
d|--0-0-0-0--0-0-0-0--0-0-0-0--0-0-0-0--0-0-0-0--0-0-0-0--0-0-0-0----------------|
a|-------------------------------------------------------------------------------|
D|-------------------------------------------------------------------------------|
pm*******************************************************************************

e|--5-5-5-5--3-3-3-3--5-5-5-5--3-3-3-3--5-5-5-5--3-3-3-3--5-5-5-5-5--|
b|--6-6-6-6--5-5-5-5--6-6-6-6--5-5-5-5--6-6-6-6--5-5-5-5--6-6-6-6-6--|
g|--7-7-7-7--6-6-6-6--7-7-7-7--6-6-6-6--7-7-7-7--6-6-6-6--7-7-7-7-7--|
d|--0-0-0-0--0-0-0-0--0-0-0-0--0-0-0-0--0-0-0-0--0-0-0-0--0-0-0-0-0--| x 2
a|--0-0-0-0--0-0-0-0--0-0-0-0--0-0-0-0--0-0-0-0--0-0-0-0--0-0-0-0-0--|
D|-------------------------------------------------------------------|

e|--5-5-5-5--3-3-3-3--5-5-5-5--3-3-3-3--5-5-5-5--3-3-3-3--5-5-5-5-5---------------|
b|--6-6-6-6--5-5-5-5--6-6-6-6--5-5-5-5--6-6-6-6--5-5-5-5--6-6-6-6-6---------------|
g|--7-7-7-7--6-6-6-6--7-7-7-7--6-6-6-6--7-7-7-7--6-6-6-6--7-7-7-7-7---------------|
d|--0-0-0-0--0-0-0-0--0-0-0-0--0-0-0-0--0-0-0-0--0-0-0-0--0-0-0-0-0---12/---------|
a|--0-0-0-0--0-0-0-0--0-0-0-0--0-0-0-0--0-0-0-0--0-0-0-0--0-0-0-0-0---12/---------|
D|--------------------------------------------------------------------12/---------|

pre verse
e|-0-0---0-0-0---0-0-0---0-0-0---0-0-0---0-0-0---0-0-0---0-0---------|
b|-1-1---1-1-1---1-1-1---1-1-1---1-1-1---1-1-1---1-1-1---1-1---------|
g|-2-2---2-2-2---2-2-2---2-2-2---2-2-2---2-2-2---2-2-2---2-2--2-0--0-|
d|-2-2---2-2-2---2-2-2---2-2-2---2-2-2---2-2-2---2-2-2---2-2------2--|
a|-0-0---0-0-0---0-0-0---0-0-0---0-0-0---0-0-0---0-0-0---0-0---------|
D|-------------------------------------------------------------------|
pm     *       *       *       *       *       *       *

Verse

e|-0-0---0-0-0---0-0-0---0-0-0---0-0-0---0-0-0---0-0-0---0-0-|
b|-1-1---1-1-1---1-1-1---1-1-1---1-1-1---1-1-1---1-1-1---1-1-|
g|-2-2---2-2-2---2-2-2---2-2-2---2-2-2---2-2-2---2-2-2---2-2-|
d|-2-2---2-2-2---2-2-2---2-2-2---2-2-2---2-2-2---2-2-2---2-2-|
a|-0-0---0-0-0---0-0-0---0-0-0---0-0-0---0-0-0---0-0-0---0-0-|
D|-----------------------------------------------------------|
pm     *       *       *       *       *       *       *

e|-----------------------------------------------------------|
b|-----------------------------------------------------------|
g|-5-5---5-5-5---5-5-5---5-5-5---5-5-5---5-5-5---5-5-5---5-5-|
d|-3-3---3-3-3---3-3-3---3-3-3---3-3-3---3-3-3---3-3-3---3-3-|
a|-3-3---3-3-3---3-3-3---3-3-3---3-3-3---3-3-3---3-3-3---3-3-|
D|-3-3---3-3-3---3-3-3---3-3-3---3-3-3---3-3-3---3-3-3---3-3-|
pm     *       *       *       *       *       *       *


e|0-0-0---0-0-0---0-0----------0-0---0-0-0---0-0-0---0-0-0---0-0-0---0-0-0---0-0-0---0-0--|
b|1-1-1---1-1-1---1-1----------1-1---1-1-1---1-1-1---1-1-1---1-1-1---1-1-1---1-1-1---1-1--|
g|2-2-2---2-2-2---2-2--2-0--0--2-2---2-2-2---2-2-2---2-2-2---2-2-2---2-2-2---2-2-2---2-2--|
d|2-2-2---2-2-2---2-2------2---2-2---2-2-2---2-2-2---2-2-2---2-2-2---2-2-2---2-2-2---2-2--|
a|0-0-0---0-0-0---0-0----------0-0---0-0-0---0-0-0---0-0-0---0-0-0---0-0-0---0-0-0---0-0--|
D|----------------------------------------------------------------------------------------|
pm     *       *                   *       *       *       *      *       *       *  

e|-----------------------------------------------------------|
b|-----------------------------------------------------------|
g|-5-5---5-5-5---5-5-5---5-5-5---5-5-5---5-5-5---5-5-5---5-5-|
d|-3-3---3-3-3---3-3-3---3-3-3---3-3-3---3-3-3---3-3-3---3-3-|
a|-3-3---3-3-3---3-3-3---3-3-3---3-3-3---3-3-3---3-3-3---3-3-|
D|-3-3---3-3-3---3-3-3---3-3-3---3-3-3---3-3-3---3-3-3---3-3-|
pm     *       *       *       *       *       *       *

e|-0-0---0-0-0---0-0-0-|
b|-1-1---1-1-1---1-1-1-|
g|-2-2---2-2-2---2-2-2-|
d|-2-2---2-2-2---2-2-2-|
a|-0-0---0-0-0---0-0-0-|
D|---------------------|
pm     *       *       

(i'd rather risk my fate...)
	 >		    >
e|---------------------------------------|
b|---------------------------------------|
g|--5----5-5-5-5-5-5---3----3-3-3-3-3----|
d|--5----5-5-5-5-5-5---3----3-3-3-3-3----|
a|--3----3-3-3-3-3-3---1----1-1-1-1-1----|
D|---------------------------------------|

Chorus
e|--5-5-5-5--3-3-3-3--5-5-5-5--3-3-3-3--5-5-5-5--3-3-3-3--5-5-5-5^---------------|
b|--6-6-6-6--5-5-5-5--6-6-6-6--5-5-5-5--6-6-6-6--5-5-5-5--6-6-6-6^---------------|
g|--7-7-7-7--6-6-6-6--7-7-7-7--6-6-6-6--7-7-7-7--6-6-6-6--7-7-7-7^---------------|
d|--0-0-0-0--0-0-0-0--0-0-0-0--0-0-0-0--0-0-0-0--0-0-0-0--0-0-0-0----------------|
a|-------------------------------------------------------------------------------|
D|-------------------------------------------------------------------------------|

e|--5-5-5-5--3-3-3-3--5-5-5-5--3-3-3-3--5-5-5-5--3-3-3-3--5-5-5-5-5--|
b|--6-6-6-6--5-5-5-5--6-6-6-6--5-5-5-5--6-6-6-6--5-5-5-5--6-6-6-6-6--|
g|--7-7-7-7--6-6-6-6--7-7-7-7--6-6-6-6--7-7-7-7--6-6-6-6--7-7-7-7-7--|
d|--0-0-0-0--0-0-0-0--0-0-0-0--0-0-0-0--0-0-0-0--0-0-0-0--0-0-0-0-0--| x 3 on third pause
a|--0-0-0-0--0-0-0-0--0-0-0-0--0-0-0-0--0-0-0-0--0-0-0-0--0-0-0-0-0--|
D|-------------------------------------------------------------------|

SOLO
e|---------------------------------------------------------|
b|-10-8-6--10-8-6--10-8-6--10-8-6------8--8--8--8--8-------|
g|-10-9-7--10-9-7--10-9-7--10-9-7----7b9-(9)(9)(9)(9)-r7p5~|
d|---------------------------------------------------------|
a|---------------------------------------------------------|
D|---------------------------------------------------------|

e|--------------------------------------10-----------------|
b|-10-8-6--10-8-6--10-8-6--10-8-6----------10--------------|
g|-10-9-7--10-9-7--10-9-7--10-9-7-----7-------10--7~-------|
d|---------------------------------------------------------|
a|---------------------------------------------------------|
D|---------------------------------------------------------|

e|-------------------------------------13-----------------------|
b|10-8-6--10-8-6--10-8-6--10-8-6---/15-----15/------------------|
g|10-9-7--10-9-7--10-9-7--10-9-7--------------------------------|
d|--------------------------------------------------------------|
a|--------------------------------------------------------------|
D|--------------------------------------------------------------|


(i'd rather risk my fate...)
	 >		    >
e|---------------------------------------|
b|---------------------------------------|
g|--5----5-5-5-5-5-5---3----3-3-3-3-3----|
d|--5----5-5-5-5-5-5---3----3-3-3-3-3----| x2
a|--3----3-3-3-3-3-3---1----1-1-1-1-1----| 
D|---------------------------------------|


e|--5-5-5-5--3-3-3-3--5-5-5-5--3-3-3-3--5-5-5-5--3-3-3-3--5-5-5-5---------------|
b|--6-6-6-6--5-5-5-5--6-6-6-6--5-5-5-5--6-6-6-6--5-5-5-5--6-6-6-6---------------|
g|--7-7-7-7--6-6-6-6--7-7-7-7--6-6-6-6--7-7-7-7--6-6-6-6--7-7-7-7---\14---------|
d|--0-0-0-0--0-0-0-0--0-0-0-0--0-0-0-0--0-0-0-0--0-0-0-0--0-0-0-0---------------|
a|------------------------------------------------------------------------------|
D|------------------------------------------------------------------------------|


e|--5-5-5-5--3-3-3-3--5-5-5-5--3-3-3-3--5-5-5-5--3-3-3-3--5-5-5-5-5--|
b|--6-6-6-6--5-5-5-5--6-6-6-6--5-5-5-5--6-6-6-6--5-5-5-5--6-6-6-6-6--|
g|--7-7-7-7--6-6-6-6--7-7-7-7--6-6-6-6--7-7-7-7--6-6-6-6--7-7-7-7-7--|
d|--0-0-0-0--0-0-0-0--0-0-0-0--0-0-0-0--0-0-0-0--0-0-0-0--0-0-0-0-0--| 
a|--0-0-0-0--0-0-0-0--0-0-0-0--0-0-0-0--0-0-0-0--0-0-0-0--0-0-0-0-0--|
D|-------------------------------------------------------------------|

end on
e|--5-|
b|--6-|
g|--7-|
d|--0-| 
a|--0-|
D|----|
Добавлено: 05.05.2012
Другие материалы по этой песне:
  • Аккорды и текст

Страница создана 05.05.2012
http://primanota.ru/the-living-end/raise-the-alarm-chords.htm
Привет, Гость.
Предлагаем пройти революционный курс по гитаре.
Подарок от PrimaNota.Ru, забирай!