PrimaNota.ru - самый крупный в мире бесплатный архив песенных текстов, аккордов, табулатур и нот


The Living End - Putting You Down - текст песни, таба, видео

Регистрация Запомнить меня
Войти через:  Facebook Google Twitter Vk Yandex Mail.ru

The Living End - Putting You Down - текст песни, таба, видео

Печатать
Просмотров: 124
Уроки эстрадного вокала в Санкт-Петербурге
PUTTING YOU DOWN

/= slide up
\= slide down
p= pull off
h= hammer on
^= full bend
^^= bend 2 frets
v= bring bend down
~= vibrado

Intro:

e--0-----0-----0------3--3/5\3--------5---------5--5-----------|
b----1-----1-----1----3--3/5\3----6h8----8-6----5--5-----------|
g------2-----2----------------------------------5--5-----------|
d-------------------------------7------------7--7--7--5/7-7----|
a-------------------------------5------------5--7--7--x-x-x----|
e--1---------------0----------------------------5--5--3/5-5----|


Main Riff: 2 guitars

Guitar one strums up, up, up down up.
e--5--5--5-5-5--5--5--5-5-5--3--3--3-3-3--3--3--3-3-3----|
b--6--6--6-6-6--6--6--6-6-6--5--5--5-5-5--5--5--5-5-5----|
g--7--7--7-7-7--7--7--7-7-7--5--5--5-5-5--5--5--5-5-5----|
d--7--7--7-7-7--7--7--7-7-7--5--5--5-5-5--5--5--5-5-5----| x2
a--5--5--5-5-5--5--5--5-5-5--3--3--3-3-3--3--3--3-3-3----|
e--------------------------------------------------------|

Guitar 2
e-------------------------------------------------------------------|
b----------------------------------------6-5------------------------|
g--/9-7~--7p5---5-7--------/7-5~---------5-5----------------5-/9h7--|
d-------------7------(x2)------------5h7------/7-5~-----5h7---------|
a---------------------------------/5-----------------/5-------------|
e-------------------------------------------------------------------|

e-------------------------------------------------------------------|
b----------------------------------------6-5---------------5h6p5----|
g--/9-7~--7p5---5-7--------/7-5~---------5-5---------------5--------|
d-------------7------(x2)------------5h7------/7-5~-----5-----------|
a---------------------------------/5-----------------/5-------------|
e-------------------------------------------------------------------|


Verse 1:

e---------------------0--0--0-0-0--0--0--0-3-3--3--3----|
b--5-5--5-5-5--5------1--1--1-0-0--0--0--0-3-3--3--3----|
g--5-5--5-5-5--5-2-2--2--2--2-0-0--0--0--0-0-0--0--0----|
d--5-5--5-5-5--5-2-2--2--2--2-2-2--2--2--2-0-0--0--0----| x2
a--3-3--3-2-2--2-0-0--0--0--0-2-2--2--2--2-2-2--2--2----|
e-----------------------------0-0--0--0--0-3-3--3--3----|
"So you left the home you never had
On your own how could things get so bad?
And you hitched a ride to the unknown
Forgot your address and your mobile phone"


Pre Chorus:

e-----0--------------3--3/5\3----------5---------5--5-----------|
b--------1-----------3--3/5\3------6h8-----------5--5-----------|
g-----------2------------------------------------5--5-----------|
d--------------2-----------------7--------7-7-7--7--7--5/7-7----|
a--------------------------------5--------5-5-5--7--7--x-x-x----|
e--1-------------0-------------------------------5--5--3/5-5----|
"Would they all remember me?
And forget about their needs?"


Chorus:
e--5--5--5-5-5--5--5--5-5-5--3--3--3-3-3--3--3--3-3-3----|
b--6--6--6-6-6--6--6--6-6-6--5--5--5-5-5--5--5--5-5-5----|
g--7--7--7-7-7--7--7--7-7-7--5--5--5-5-5--5--5--5-5-5----|
d--7--7--7-7-7--7--7--7-7-7--5--5--5-5-5--5--5--5-5-5----| x2
a--5--5--5-5-5--5--5--5-5-5--3--3--3-3-3--3--3--3-3-3----|
e--------------------------------------------------------|
"There's nobody putting you down
Just spending your life hangin' around
There's nobody putting you down
But you're draggin' your life on the ground"


Verse 2: Same as Verse 1, but with lead guitar in backround

e--------------------------------------------------------|
b----------------------------------------------2-4-/7----|
g--------------------------------------------------------|
d--5---5---5---5---7---5---------2-/5--------------------|
a----7---7---7---7---7---7---0-3--------2-0--------------|
e--------------------------------------------------------|
   pm.....................
"And you said some things you didn't mean
A lot of what you thought
Wasn't half that it seemed"


e---------------------------------------------------|
b---------------------------------------------------|
g-------------------7--5--5\4-4-2-4-0---------------|
d--5---5---5---5-------------------------9\--5-5----|
a----7---7---7---7-----------------------x---x-x----|
e----------------------------------------7\--3-3----|
   pm.............
"So you hitched a ride to the unknown
Forgot your address and your mobile phone"


Pre Chorus

Chorus

Pre Solo:

e--5--5--3--3--0--0-------------5--5--5-5-5----3--------------|
b--6--6--3--3--0--0-------------6--6--6-6-6----5--------------|
g--7--7--4--4--0--0--2-2--------7--7--7-7-7----5---7^^vp5-----|
d--7--7--5--5--2--2--2-2---------------------5------------7~--|
a--5--5--5--5--2--2--0-0-3-4-5---------------3----------------|
e--------3--3--0--0-------------------------------------------|
"Spendin' your life, hangin' around
No there's nobody putting you down"


Solo: (Verse Chords in backround)

e------------------------------------------------5---5---5---5---5-------|
b------------------------------------------------5---5---5---5---5-------|
g--/9-7~--7-7p5---5-7------/9-7~--7-7p5---5-7^^--7^^-7^^-7^^-7^^-7^^v-5--|
d---------------7-----------------------7--------------------------------|
a------------------------------------------------------------------------|
e------------------------------------------------------------------------|

e--8-8-8--5-5-5--3--12^^-----------8----10^^--------------12----------------|
b--8-8-8--6-6-6--5-------10~--8h10---10------10~--10p8-10----10h8-10h8------|
g----------------------------------------------------------------------9p7--|
d---------------------------------------------------------------------------|
a---------------------------------------------------------------------------|
e---------------------------------------------------------------------------|

e--/15--------------------------------------------------------------|
b-------15-12-------/15--12--------------12--10--8--6--5--3--0------|
g-------------14p12---------14p12--------12--10--9--7--5--4--2p0----|
d---------------------------------14p12-----------------------------|
a-------------------------------------------------------------------|
e-------------------------------------------------------------------|

Verse

Pre Chorus

Chorus

Outro: Just keep playing the main riff until the song has fully faded out!

So yer... This song has excellent guitar stuff in it!
Hope u liked it!

Tabbed BY Moonpie/Mikey B
Добавлено: 23.07.2012
Другие материалы по этой песне:
  • Аккорды и текст

Страница создана 18.07.2012
http://primanota.ru/the-living-end/putting-you-down-chords.htm
Привет, Гость.
Предлагаем пройти революционный курс по гитаре.
Подарок от PrimaNota.Ru, забирай!