PrimaNota.ru - самый крупный в мире бесплатный архив песенных текстов, аккордов, табулатур и нот


The Living End - Problem - аккорды и текст, таба, видео

Регистрация Запомнить меня
Войти через:  Facebook Google Twitter Vk Yandex Mail.ru

The Living End - Problem - аккорды и текст, таба, видео

Печатать
Просмотров: 117
Problem
The Living End
		   - THE LIVINGE END -
                         Problem
               Transcribed by Michael Fryar
                   manumick20@yahoo.com


x=dead note
*F*=Tap fret with index finger
p=pull off
h=hammer on
^=bend
~=vibrado
sw=sweep



Verse:
                                  Bb
e--------------------------------------------------|
b--------------------------------------------------|
g---------------------------------3-3-3-x-3-3-3-3--|
d---------------------------------3-3-3-x-3-3-3-3--|
a-3-3-3-3-3-3-3-3-3-3-3-3-3-3-3-3-1-1-1-x-1-1-1-1--|
e--------------------------------------------------|
 / p a l m    m u t e d..........\


  G    F    D#         F
e------------------------------|
b------------------------------|
g-----------8-8-8-8-------10---|
d-5-5----3--8-8-8-8-----10--10-|
a-5-5--3-3--6-6-6-6----8------8|
e-3-3--1-1---------------------|

                                  Bb
e-------------------------------------------------|
b-------------------------------------------------|
g---------------------------------3-3-3-x-3-3-3-3-|
d---------------------------------3-3-3-x-3-3-3-3-|
a-3-3-3-3-3-3-3-3-3-3-3-3-3-3-3-3-1-1-1-x-1-1-1-1-|
e-------------------------------------------------|


   G     F   D#         F
e----------------------------------------------|
b----------------------------------------------|
g-----------8-8-8-8-------10-----10-----10-----|
d-5-5----3--8-8-8-8-----10--10-10--10-10--10---|
a-5-5--3-3--6-6-6-6----8------8------8------8--|
e-3-3--1-1-------------------------------------|


Chorus:

  G#  D#  F   C#    G#  G  F    D#  C#      D#
e--------------------------------------------------|
b--------------------------------------------------|
g-----8-8-----6-6---------------8-8-6-6-6-6-8-8-8-8|
d-6-6-8-8-3-3-6-6---6-6-5-5-3-3-8-8-6-6-6-6-8-8-8-8|
a-6-6-6-6-3-3-4-4---6-6-5-5-3-3-6-6-4-4-4-4-6-6-6-6|
e-4-4-----1-1-------4-4-3-3-1-1--------------------|

  G#  D#   F  C#    G#  G   F   D#   C#     C#m
e-------------------------------------------4-4-4-4|
b-------------------------------------------5-5-5-5|
g-----8-8-----6-6---------------8-8-6-6-6-6-6-6-6-6|
d-6-6-8-8-3-3-6-6---6-6-5-5-3-3-8-8-6-6-6-6-6-6-6-6|
a-6-6-6-6-3-3-4-4---6-6-5-5-3-3-6-6-4-4-4-4-4-4-4-4|
e-4-4-----1-1-------4-4-3-3-1-1--------------------|


  G#
e----------------------|
b----------------------|
g----------------------|
d-6-6-6-6-6-6-6-6-6-6--|
a-6-6-6-6-6-6-6-6-6-6--|
e-4-4-4-4-4-4-4-4-4-4--|

Verse

Chorus


Solo:

  B                F#
e------------------------------------------------|
b-12^-----------------------sw10-10-14-12--------|
g------13-11-----------sw11---------------14-12--|
d-----------------sw12---------------------------|
a------------------------------------------------|
e------------------------------------------------|
  G#                          E
e--------------------------------------|
b---------------------------------9-9--|
g--------------------------------9--9--|
d-------9-11-13-11-9------------9---9--|
a-11-12--------------12-7-12--7--------|
e--------------------------------------|
  B          F#      G#                             E
e-------------------------------------------------------12-|
b----------------------------------------------------12-12-|
g----8^-8--------------------------------------11-13-------|
d-9^------9-8-------------11-13-11----11-13-11-------------|
a-------------9-----11-13----------13----------------------|
e----------------------------------------------------------|
                   / p a l m    m u t e d...........\

Fingertapping:
   *F*            *F*             *F*             *F*
e-14p7h11p7-(x4)--15p9h12p9-(x4)--12p7h11p7-(x4)--12p4h6p4-(x4)|
b--------------------------------------------------------------|
g--------------------------------------------------------------|
d--------------------------------------------------------------|
a--------------------------------------------------------------|
e--------------------------------------------------------------|
   B          F#                 G#m      E
e--------------------------------4-4------0---0--|
b--------------------------------4---4----0---0--|
g--------------------------------4--------1^--1--|
d--------------------------------6--------2^--2--|
a--5-7^-5-7-5--------------------6--------2^-----|
e-------------7~--7-6-5-3-2~-----4--------0------|

Verse

Chorus     
Добавлено: 17.07.2013
Другие материалы по этой песне:
  • Аккорды и текст

Страница создана 01.03.2012
http://primanota.ru/the-living-end/problem-chords.htm
Привет, Гость.
Предлагаем пройти революционный курс по гитаре.
Подарок от PrimaNota.Ru, забирай!