PrimaNota.ru - самый крупный в мире бесплатный архив песенных текстов, аккордов, табулатур и нот


The Living End - Nowhere Town - текст песни, таба, видео

Регистрация Запомнить меня
Войти через:  Facebook Google Twitter Vk Yandex Mail.ru

The Living End - Nowhere Town - текст песни, таба, видео

Печатать
Просмотров: 168
Уроки эстрадного вокала в Санкт-Петербурге
e|-----------------|-----------------|
B|-----------------|-----------------|
G|-----------------|-----------------|
D|-----------------|-----------------|
A|----8--7---8---7-|----7--5---7---5-|
E|-5--—----5---5--5|--4------4---4--4|
                                          Part 1
e|-----------------|-----------------|
B|-----------------|-----------------|
G|-----------------|-----------------|
D|-----------------|-----------------|
A|---7--5---7---5--|----5--3---5---3-|
E|-3------3---3---3|--2------2---2--2|
____________________________________________________
e|------------------------------------|
B|------------------------------------|
G|--9---7---5---3---------------------|
D|--x---x---x---x---------------------|
A|--7---5---3---2---------------------|
E|------------------------------------|

Repeat part1
then

e|-----------------|
B|-----------------|
G|-------------7---|
D|--------6--9---9-|
A|--7-5-7----------|
E|-----------------|

soz thats all i have for now but also look for the solo i tabbed!
Добавлено: 14.04.2012
Другие материалы по этой песне:

Страница создана 14.04.2012
http://primanota.ru/the-living-end/nowhere-town-chords.htm
Привет, Гость.
Предлагаем пройти революционный курс по гитаре.
Подарок от PrimaNota.Ru, забирай!