PrimaNota.ru - самый крупный в мире бесплатный архив песенных текстов, аккордов, табулатур и нот


The Living End - New Frontier - таба, видео

Регистрация Запомнить меня
Войти через:  Facebook Google Twitter Vk Yandex Mail.ru

The Living End - New Frontier - таба, видео

Печатать
Просмотров: 90
NEW FRONTIER - THE LIVING END
Tabbed by Matt Heal and Arin Ozdemir
Email: mattheal(at)gmail.com

for more tabs for the The Living End check out http://tletabs.webs.com/index.htm

This song was originally only released on the japanese version of white noies, but has 
been put as the B-side to the second single "moment in the sun"

Key
* = Palm Mute
~ = Bigsby wobble
INTRO
e|-------------------------------------------------------------------------------9---|
b|-----------------------------------------5------------------------4-5-------s9-9---|
g|-------------------------------4-6-666-4-6--------------------4-6-----4-6----------|
d|----------------4-6-4--6-7-777-----------7-----4-444--6-7-777----------------------|
a|--4-444-6-7-777------7-------------------------------------------------------------|
E|-----------------------------------------------------------------------------------|

Verse (Gallopy)
e|--4-4-4-4-4-4-4-4-4-4-4--------------------------------|
b|--5-5-5-5-5-5-5-5-5-5-5-----0-0-0--4-2-4---0-0-0-4-2-4-|
g|--6-6-6-6-6-6-6-6-6-6-6-----1-1-1--4-2-4---1-1-1-4-2-4-| x2
d|--6-6-6-6-6-6-6-6-6-6-6-----2-2-2--4-2-4---2-2-2-4-2-4-|
a|--4-4-4-4-4-4-4-4-4-4-4-----2-2-2--2-0-2---2-2-2-2-0-2-|
E|----------------------------0-0-0----------0-0-0-------|
pm *********************
gtr 2 (lead bit
e|-------------------------------------------------------|
b|-----------------------------5-555-4-2-----5-555-4-2---|
g|---------------------------------------4-------------4-| x2
d|-------------------------------------------------------|
a|-------------------------------------------------------|
E|-------------------------------------------------------|

e|------------------------------------|
b|--4-4-4-4-4-4-4-4---2-2-2-2-2-2-2-2-|
g|--4-4-4-4-4-4-4-4---2-2-2-2-2-2-2-2-|
d|--4-4-4-4-4-4-4-4---2-2-2-2-2-2-2-2-|x 3
a|--2-2-2-2-2-2-2-2---0-0-0-0-0-0-0-0-|
E|------------------------------------|
pm ****************   ***************
e|--------------------------|
b|----------------2-2--4-4--|
g|----------------2-2--4-4--|
d|--6-6-6-6-6-6---2-2--4-4--|
a|--6-6-6-6-6-6---0-0--2-2--|
E|--4-4-4-4-4-4--------2-2--|
pm ************

CHORUS
gtr 1 (rythmn)
e|-4-4-4-4-4-4-4---5-5-5-5-5-5-4|
b|-5-5-5-5-5-5-5---5-5-5-5-5-5-4|
g|-6-6-6-6-6-6-6---6-6-6-6-6-6-4|
d|-6-6-6-6-6-6-6---7-7-7-7-7-7-6|
a|-4-4-4-4-4-4-4---7-7-7-7-7-7-6|
E|-----------------5-5-5-5-5-5-4|
Gtr 2 (lead)
e|------------------------------------|
b|------------------------------------|
g|------------------------------------|
d|-----------4-6-4--------------------|
a|-4-444-6-7-------7-6---------4------|
E|---------------------5-555-7---7-5~-|
|

Gtr 1 (rythmn
e|-----------------4--s12-9|
b|-2-2-4-4-2-2-4-4-5--s12-9|
g|-2-2-4-4-2-2-4-4-6-------|
d|-4-4-6-6-2-2-4-4-6-------|
a|-4-4-6-6-0-0-2-2-4-------|
E|-2-2-4-4-----------------|

Gtr 2 (lead)
e|---------------------------------|
b|---------------------------------|
g|---------------------------------|
d|---------------------------------|
a|------------------2-4-6-7p6---4--|
E|-4-2-222-4-5-555------------7----|

Verse (Gallopy)
e|--4-4-4-4-4-4-4-4-4-4-4--------------------------------|
b|--5-5-5-5-5-5-5-5-5-5-5-----0-0-0--4-2-4---0-0-0-4-2-4-|
g|--6-6-6-6-6-6-6-6-6-6-6-----1-1-1--4-2-4---1-1-1-4-2-4-| x2
d|--6-6-6-6-6-6-6-6-6-6-6-----2-2-2--4-2-4---2-2-2-4-2-4-|
a|--4-4-4-4-4-4-4-4-4-4-4-----2-2-2--2-0-2---2-2-2-2-0-2-|
E|----------------------------0-0-0----------0-0-0-------|
pm *********************
gtr 2 (lead bit
e|-----------------------------0-000-0-0-----0-000-0-0---|
b|-----------------------------5-555-4-2-0---5-555-4-2-0-|
g|---------------------------------------4-------------4-| x2
d|-------------------------------------------------------|
a|-------------------------------------------------------|
E|-------------------------------------------------------|

e|------------------------------------|
b|--4-4-4-4-4-4-4-4---2-2-2-2-2-2-2-2-|
g|--4-4-4-4-4-4-4-4---2-2-2-2-2-2-2-2-|
d|--4-4-4-4-4-4-4-4---2-2-2-2-2-2-2-2-|x 3
a|--2-2-2-2-2-2-2-2---0-0-0-0-0-0-0-0-|
E|------------------------------------|
pm ****************   ***************

e|--------------------------|
b|----------------2-2--4-4--|
g|----------------2-2--4-4--|
d|--6-6-6-6-6-6---2-2--4-4--|
a|--6-6-6-6-6-6---0-0--2-2--|
E|--4-4-4-4-4-4--------2-2--|
pm ************

CHORUS
gtr 1 (rythmn)
e|-4-4-4-4-4-4-4---5-5-5-5-5-5-4|
b|-5-5-5-5-5-5-5---5-5-5-5-5-5-4|
g|-6-6-6-6-6-6-6---6-6-6-6-6-6-4|
d|-6-6-6-6-6-6-6---7-7-7-7-7-7-6|
a|-4-4-4-4-4-4-4---7-7-7-7-7-7-6|
E|-----------------5-5-5-5-5-5-4|
Gtr 2 (lead)
e|------------------------------------|
b|------------------------------------|
g|------------------------------------|
d|-----------4-6-4--------------------|
a|-4-444-6-7-------7-6---------4------|
E|---------------------5-555-7---7-5~-|


Gtr 1 (rythmn
e|-----------------4--s12-9|
b|-2-2-4-4-2-2-4-4-5--s12-9|
g|-2-2-4-4-2-2-4-4-6-------|
d|-4-4-6-6-2-2-4-4-6-------|
a|-4-4-6-6-0-0-2-2-4-------|
E|-2-2-4-4-----------------|

Gtr 2 (lead)
e|--------------------------------|
b|--------------------------------|
g|--------------------------------|
d|--------------------------------|
a|------------------2-4-6-7p6---4-|
E|-4-2-222-4-5-555------------7---|

SOLO
e|-4-444-2--4-444-2--4-444-2--4-----|
b|-5-555-4--5-555-4--5-555-4--5-----|
g|----------------------------------|
d|----------------------------------|
a|----------------------------------|
E|----------------------------------|

e|--0-000-0-0----0-000-0-0---|
b|--5-555-4-2----5-555-4-2---|
g|------------4------------4-|
d|---------------------------|
a|---------------------------|
E|---------------------------|

e|-9-9-9-9-7---9-9-9-9-7---9-9-9-9-7---9-9-9-9-7------|
b|-9-9-9-9-7---9-9-9-9-7---9-9-9-9-7---9-9-9-9-7------|
g|----------------------------------------------------|
d|----------------------------------------------------|
a|----------------------------------------------------|
E|----------------------------------------------------|

e|--0-000-0-0----0-000-0-0---|
b|--5-555-4-2----5-555-4-2---|
g|------------4------------4-|
d|---------------------------|
a|---------------------------|
E|---------------------------|

e|----------------------------------|
b|--4-444-5-7-777-5-2-222-4-5-4-2---|
g|--4-444-6-8-888-6-2-222-4-6-4-2---|
d|----------------------------------|
a|----------------------------------|
E|----------------------------------|

e|-----------------------------------------|
b|--4-444-5-7-777-5-s14-141414-16-17-16-14-|
g|--4-444-6-8-888-6-s14-141414-16-18-16-14-|
d|-----------------------------------------|
a|-----------------------------------------|
E|-----------------------------------------|

e|------------5-7-5-4~-----------4-----|
b|--7-5-4-7-5-5-----4~-2-2--4-4--5-----|
g|--8-6-4-6-8-6-----5~-2-2--4-4--6-----|
d|------------7-----6~-2-2--4-2--6-----|
a|------------7-----6~-0-0--2-2--4-----|
E|------------5-----4~-----------------|


Delay Bit (just mess arouind with these two chords)
e|-4-----0-|
b|-5-----5-|
g|-6-----6-|
d|-6-----6-|
a|-4-----0-|
E|-------5-|

Bridge: (please let me know.....)
e|--4-4-4-4-4---4-4-4-4-4--|
b|--5-5-5-5-5---5-5-5-5-5--|
g|--6-6-6-6-6---6-6-6-6-6--|x3
d|--6-6-6-6-6---6-6-6-6-6--|
a|--4-4-4-4-4---0-0-0-0-0--|
E|-------------------------|
pm  *********   *********
"im not coming back...."
e|----------------------|
b|-4-4-4-4--2-2-2-2-----|
g|-4-4-4-4--2-2-2-2-----|
d|-4-4-4-4--2-2-2-2-----|
a|-2-2-2-2--0-0-0-0-----|
E|----------------------|

CHORUS x
gtr 1 (rythmn)
e|-4-4-4-4-4-4-4---5-5-5-5-5-5-4|
b|-5-5-5-5-5-5-5---5-5-5-5-5-5-4|
g|-6-6-6-6-6-6-6---6-6-6-6-6-6-4|
d|-6-6-6-6-6-6-6---7-7-7-7-7-7-6|
a|-4-4-4-4-4-4-4---7-7-7-7-7-7-6|
E|-----------------5-5-5-5-5-5-4|
Gtr 2 (lead)
e|------------------------------------|
b|------------------------------------|
g|------------------------------------|
d|-----------4-6-4--------------------|
a|-4-444-6-7-------7-6---------4------|
E|---------------------5-555-7---7-5~-|


Gtr 1 (rythmn
e|-----------------4--s12-9|
b|-2-2-4-4-2-2-4-4-5--s12-9|
g|-2-2-4-4-2-2-4-4-6-------|
d|-4-4-6-6-2-2-4-4-6-------|
a|-4-4-6-6-0-0-2-2-4-------|
E|-2-2-4-4-----------------|

Gtr 2 (lead)
e|----------------------------|
b|----------------------------|
g|----------------------------|
d|----------------------------|
a|-------------2-4-6-7p6---4--|
E|-4-2-222-4-5-----------7----|

gtr 1 (rythmn)
e|-4-4-4-4-4-4-4---5-5-5-5-5-5-4|
b|-5-5-5-5-5-5-5---5-5-5-5-5-5-4|
g|-6-6-6-6-6-6-6---6-6-6-6-6-6-4|
d|-6-6-6-6-6-6-6---7-7-7-7-7-7-6|
a|-4-4-4-4-4-4-4---7-7-7-7-7-7-6|
E|-----------------5-5-5-5-5-5-4|
Gtr 2 (lead)
e|------------------------------------|
b|------------------------------------|
g|------------------------------------|
d|-----------4-6-4--------------------|
a|-4-444-6-7-------7-6---------4------|
E|---------------------5-555-7---7-5~-|

Gtr 1 (rythmn
e|--------------------|
b|-2-2-4-4-2-2-4-4-2--|
g|-2-2-4-4-2-2-4-4-2--|
d|-4-4-6-6-2-2-4-4-2--|
a|-4-4-6-6-0-0-2-2-0--|
E|-2-2-4-4------------|

Gtr 2 (lead)
e|----------------------------|
b|----------------------------|
g|----------------------------|
d|----------------------------|
a|-------------2-4-6-7p6------|
E|-4-2-222-4-5-----------7-5--|

Post Chorus:

e|--------0--0----------------|
b|-2-4--4-3--3-2--------------|
g|-2-4--4-2--2-2--------------|
d|-2-4--4-3--3-2--------------|
a|-0-0--0-0--0-0--------------|
E|----------------------------|

e|-----------0--0----------------|
b|-2--2-4--4-3--3-2--------------|
g|-2--2-4--4-2--2-2--------------|
d|-2--2-4--4-3--3-2--------------|
a|-0--0-0--0-0--0-0--------------|
E|-------------------------------|

e|-----------0--0-------------|
b|-2--2-4--4-3--3-222222222---|
g|-2--2-4--4-2--2-222222222---|
d|-2--2-4--4-3--3-222222222---|
a|-0--0-0--0-0--0-000000000---|
E|----------------------------|
                  PM********

Outro:

e|-55555555----------------------------|
b|-66666666--9-8-6--9-8-6--9-8-6--9-8-6|
g|-77777777----------------------------|
d|-------------------------------------|
a|-------------------------------------|
E|-------------------------------------| x4

e|-555-5-555-5-555---------------------|
b|-666-6-666-6-666--8b9-8-6-8-8b9-8-6--|
g|-777-7-777-7-777---------------------|
d|-------------------------------------|
a|-------------------------------------|
E|-------------------------------------| x3


e|-5555555566666667--etc---4~------------|
b|-6666666677777778--------5~------------|
g|-7777777788888889--------6~------------|
d|-------------------------6~------------|
a|-------------------------4~------------|
E|---------------------------------------|
go up in triads until neccesary
Добавлено: 17.06.2012
Другие материалы по этой песне:
  • Аккорды и текст

Страница создана 17.06.2012
http://primanota.ru/the-living-end/new-frontier-chords.htm
Привет, Гость.
Предлагаем пройти революционный курс по гитаре.
Подарок от PrimaNota.Ru, забирай!